From: Kravtsov Igor [email protected]

Я постарался придать этому блюзу по возможности более джазовый характер. Мне лично нравится, как это у меня получилось, и я играю его часто. Был бы рад знать Ваше мнение, а также получить аналогичные вещи, с текстами, русские и зарубежные по адресу [email protected]

|Fmaj7 Am7 Ho7 E7 |Fmaj7 Am7 Ho7 E7|Fmaj7
Ты с высоты красоты

Am7 Ho7 E7| Fmaj7 Am7Co7Ho7F7E7|
своей меня не замечаешь.
|Fmaj7 Am7 Ho7 E7 |Fmaj7 Am7 Ho7 E7|

Но все равно будет

Fmaj7 Am7 Ho7 E7| Fmaj7 Am7Co7Ho7F7E7|
ночь и ты меня ещё узнаешь.

|Dm7 D#o7 Em6 E7 | Am7 Ab7+5-9 H7-5 E7|

Пускай сегодня я никто

|Dm7 D#o7 Em6 E7 | Am7 F7 E7 (Bass:e f# g#)|

И пусть твердят тебе что я не то
e-|-------------------------------------------------|
h-|---1--------1-------0--|---------1------1--------|
g-|---2--------2-------1--|---------2------2--------|
d-|---2--------2-------0--|---------2------2--------|
a-|0----------------------|--0----------------------|
e-|-------2----1----0-----|---------2---1-----0----|

Дай мне этот день, дай мне эту ночь,

|---------------------------------------------------|
|---1----0-----1-----0----|1----5----|--7--6--6--5--|
|---0----1-----2-----1----|2----5----|--8--7--8--7--|
|---2----0-----3-----0----|3----5----|--7--7--7--6--|
|---0--2-------3-----2----|3----x----|--x--x--x--x--|
|-------------------------|-----5----|--8--7--8--7--|

дай мне хоть один шанс и ты поймёшь я то что

| Fmaj7 Am7Co7Ho7F7E7|

надо

e-|-------------------------------------------------|
h-|---1--------1-------0--|---------1------1--------|
g-|---2--------2-------1--|---------2------2--------|
d-|---2--------2-------0--|---------2------2--------|
a-|0----------------------|--0----------------------|
e-|-------2----1----0-----|---------2---1-----0----|

Дай мне этот день, дай мне эту ночь,

|--------------------------------------------------|
|---1-----0------1-----0-|1-----5---|---7--6-|--6--5--|
|---0-----1------2-----1-|2-----5---|---8--7-|--8--7--|
|---2-----0------3-----0-|3-----5---|---7--7-|--7--6--|
|---0--2---------3-----2-|3-----x---|---x--x-|--x--x--|
|------------------------|------5---|---8--7-|--8--7--|

дай мне хоть один шанс -- ты не уснёшь пока я

| Fmaj7 Am7Co7Ho7F7E7|

рядом.

Аккорды:

Fmaj7 | Am7 | Ho7 | E7 | Co7 | F7 |
e-|--------|-------|-------|-------|-------|-------|
h-|---1----|---5---|---6---|---5---|---7---|---6---|
g-|---2----|---5---|---7---|---7---|---8---|---8---|
d-|---2----|---5---|---7---|---6---|---7---|---7---|
a-|---x----|---x---|---x---|---x---|---x---|---x---|
e-|---1----|---5---|---7---|---7---|---8---|---8---|

Dm7 D#o7 | Em6 | E7 |Ab7+5-9 |H7-5 |
---5------5---|---7---|---4----|----5----|--------|
---6---|---7---|---7---|---5----|----5----|----6---|
---5---|---5---|---7---|---4----|----5----|----8---|
---7---|---7---|---6---|---0----|----4----|----7---|
---5---|---6---|-------|--------|----3----|----x---|
---5---|---5---|-------|--------|----4----|----7---|

2. Я для тебя не богат, не знаменит и не престижен.
Но всё равно мне смешно и на тебя я не обижен.
Пускай сегодня я никто...и т.д.

Чем больше синкоп, экспериментов с басом, тем лучше.
Viel Spaß-----Have a fun.




Ваше мнение



Капча