The Jean Genie
intro strum away on E and slide down
E
|0-----|
|0-----|
|13----|
|14----|
|14----|
|0-----|

E
|-----------------|
|-----------------|
|-----------0-2-0-|
|2---2---2--0-2-0-|
|2---2---2----0---|
|0---0---0--------|

|E |E |
A small Jean Genie snuck off to the city
Strung out on lasers and slash back blazers and
Ate all your razors while pulling the waiters
Talking bout Monroe and walking on Snow White
New York's a go-go when everything tastes right
Poor little Greenie ooh ooh

B
|----------------|-------------------|
|----------------|-------------------|
|----------------|-------------------|
|----------------|-------------------|
|9---9---11--9---|9-11-9-1211~------|
|7---7---7---7---|7-7--7-7--7--------|
Forget that one
The Jean Genie lives on his back
The Jean Genie loves chimney stacks
He's outrageous he screams and he bawls
Jean Genie let yourself go..........

A
|----------------|------------------|
|----------------|5/7p5-8-7~--8----|
|----------------|------------------|
|----------7-----|----x-7-----------|
|7---9---9-7-----|7-7-x-7-9---------|
|5---5---5-------|5-5-----5---------|
go....




Ваше мнение



Капча

Рекомендуем