David Bowie - Starman
Tabbed By: Myke
EMail: [email protected]
Standard Tuning:
I have Decided To Make A Proper Tab Of Starman By David Bowie
Since No Other Tabs Avaliable Have The Lead Sections. This
Tab Includes Easy-To-Play Chords And The Lead Guitar/Piano Parts
And The Name Of The Chords For Later Reference. I Also have Lead
Guitar Parts For Other Bowie Songs So If You Want Any, Feel Free
To Email Me With Requests.
Intro:
Bm FMaj7
|-------0---------0--|
|--3----1----3----1--|
|--3----2----3----2--|
|--3----3----3----3--|
|--1---------1-------|
|--------------------|
Verse:
Gm F C C7 F Ab Bb Gm F C C7
|--3----1----0----0----1--4--6----3----1----0----0--|
|--3----1----1----1----1--4--6----3----1----1----1--|
|--3----2----0----3----2--5--7----3----2----0----3--|
|--5----3----2----2----3--6--8----5----3----2----2--|
|--5----3----3----3----3--6--8----5----3----3----3--|
|--3----1--------------1--4--6----3----1------------|
Pre-Chorus:
A G
|----------------------------------------------------------------|
|--10-10--10-10--10-10--10-10--10--10--8-8--8-8--8-8--8-8--8--8--|
|---x--x---x--x---x--x---x--x---x---x--x-x--x-x--x-x--x-x--x--x--|
|---7--7---7--7---7--7---7--7---7---7--5-5--5-5--5-5--5-5--5--5--|
|----------------------------------------------------------------|
|----------------------------------------------------------------|
Chorus:
F Dm Am C/G C Bb Bbm F D/F# Gm C7
|--1----1----0--0----0-------1----1--2----3--0--|
|--1----2----1--1----1----3--2----1--3----3--1--|
|--2----3----2--0----0----3--3----2--2----3--3--|
|--3----0----2--2----2----3--3----3--0----5--2--|
|--3----0----0--3----3----1--1----3--x----5--3--|
|--1------------3-----------------1--2----3-----|
Bridge:
Bb F C F Gm Am
|--10----10--8----------------------------12----12--10--8----------------------|
|---------------11----10----10--11--13-----------------------10----10--11--13--|
|------------------------------------------------------------------------------|
|------------------------------------------------------------------------------|
|------------------------------------------------------------------------------|
|------------------------------------------------------------------------------|
Bb F C
|--10----10--8----------------------------12----12--10----------|
|---------------11----10----10--11--13------------------13--10--|
|---------------------------------------------------------------|
|---------------------------------------------------------------|
|---------------------------------------------------------------|
|---------------------------------------------------------------|
Outro:
Bb F C F Gm Am
|-------1----0----1--3--5--|
|--3----1----1----1--3--5--|
|--3----2----0----2--3--5--|
|--3----3----2----3--5--7--|
|--1----3----3----3--5--7--|
|-------1---------1--3--5--|
[email protected]
===========
Titre: Starman
Auteur: David Bowie
Arrangements pour guitare acoustique: Joe Hartley
Mise au point des paroles et accords pour guitare acoustique: Daniel Gratton
Accords:
Bb: xx3331
f: xx3211
Gm: 355333
C: 032010
C7: 032310
F: 133211
Ab: 466544
Bb2: 688766
Dm: xx0231
Dm7: xx0211
Am: xx2210
Bbm: xx3321
A: 002220
G: 3x0003
INTRO:
[Bb] [f] [Bb] hey la la la... [f] hey la la la...
[Gm] Didn't know what time it was, the lights were low-ow- [F] ow
I leaned back on my radio-o- [C] o
Some cat was layin'down some [C7] rock'n'roll'lotta soul, he [F] said [Ab] [Bb2]
[Gm] Then the loud sound did seem to fa-a-a- [F] de
Came back like slow voice on a wave of pha-a-a- [C] se
That weren't no DJ that was [C7] hazy cosmic jive [A] [G]
[C7] There's a [F] starman [Dm] waiting in the sky
He'd [Am] like to come and [C] meet us
But he [C7] thinks he'd blow our minds
[C7] There's a [F] starman [Dm] waiting in the sky
He's [Am] told us not to [C] blow it
Cause he [C7] knows it's all worthwhile
He told me:
[Bb] Let the children [Bbm] lose it
[f] Let the children [Dm7] use it
[Gm] Let the children [F] boogle
MEDLEY:
[Bb] [f] [C] [f] [Bb] [f] [C] [f]
[Gm] I had to phone someone so I picked on you-ou- [F] ou
Hey, that's far out so you heard him too-oo- [C] oo
Switch on the TV we may [C7] pick him up on channel [F] two [Ab] [Bb2]
[Gm] Look out your window I can see the light-ight- [F] ight
If we can sparkle he may land tonight-ight- [C] ight
Don't tell your papa or he'll [C7] get us locked up in fright [A] [G]
[C7] There's a [F] starman [Dm] waiting in the sky
He'd [Am] like to come and [C] meet us
But he [C7] thinks he'd blow our minds
[C7] There's a [F] starman [Dm] waiting in the sky
He's [Am] told us not to [C] blow it
Cause he [C7] knows it's all worthwhile
He told me:
[Bb] Let the children [Bbm] lose it
[f] Let the children [Dm7] use it
[Gm] Let the children [F] boogle
[C7] There's a [F] starman [Dm] waiting in the sky
He'd [Am] like to come and [C] meet us
But he [C7] thinks he'd blow our minds
[C7] There's a [F] starman [Dm] waiting in the sky
He's [Am] told us not to [C] blow it
Cause he [C7] knows it's all worthwhile
He told me:
[Bb] Let the children [Bbm] lose it
[f] Let the children [Dm7] use it
[Gm] Let the children [F] boogle
FINALE: (fade)
[Bb] [f] [C] [f] [Bb] [f] [C] [f]
LA LA LA LA LA .......
====


Ваше мнение



Капча

Рекомендуем