Sound and Vision

Verse
G Vary the fills Am Am
|2-----------5-7-5-|2---------5-7-5-|5----------7-8-7-|5---------7-8-7-|
|2-----------------|2---------------|5----------------|5---------------|
|0-----------------|0---------------|5----------------|5---------------|
|0-----------------|0---------------|7----------------|7---------------|
|------------------|----------------|0----------------|0---------------|
|------------------|----------------|-----------------|----------------|

D D G G
|------------------|----------------|---------5-5-7-5-|----------5/7-5-|
|7----------8/108-|7---------8-108|8----------------|8---------------|
|7-----------------|7---------------|7----------------|7---------------|
|7-----------------|7---------------|5----------------|5---------------|
|5-----------------|5---------------|alternate G------|----------------|
|------------------|----------------|-----------------|----------------|

Repeat the above then this twice
Am G Am G G
|5-/7-5------------|5-/7-5-------5/7|-------------5/7-|----------------|
|5----5---8---8----|5----5--8---8---|8----------------|8---------------|
|5----5---7---7----|5----5--7---7---|7----------------|7---------------|
|7--------5---5----|--------5---5---|5----------------|5---------------|
|0-----------------|----------------|-----------------|-----------2-3-4|last
|------------------|----------------|-----------------|----------------|time
I will sit.. sound and vision

then
Am D Em
|------------------|2---------------|-----------------|
|------------------|3---------------|-----------------|
|------------------|2---------------|0----------------|
|0-----------------|0-----0---------|2----------------|
|----3-2-3-0-------|----------3--2-3|2----------------|
|------------------|----------------|0----------------|
into my solitude over my head, Don't you wonder..




Ваше мнение



Капча

Рекомендуем