Prettiest Star

F F/C Dm Dm/A D#flat 5
------|----------------------8-------|----------------------8-------|
5-6-8-|10~--8-10~-------8-10---10-88-10~---8-10~-------8-10---10-88-|
------|------------------------------|------------------------------|
------|------------------------------|------------------------------|
------|------------------------------|------------------------------|
------|------------------------------|------------------------------|

A C
|-------------------------------|--------------------------------|
|108---6-6-8br~------66-8-8-66-|8~---8-8-8-8-8-8-8-8-8----------|
|-------------------------------|-----9-9-9-9-9-9-9-9-9----------|
|-------------------------------|--------------------------------|
|-------------------------------|--------------------------------|
|-------------------------------|--------------------------------|

|F F/C |Dm Dm/A D#flat 5 |
Cold fire you've got everything but cold fire you will be my rest and
So tired, it's the sky that makes you feel tried It's a trick to make you

|A |C |
peace child I moved up to take a place near you
you see wide It can all but break your heart in pieces

|Bb |Am |Eb |
Staying back in your memory Are the movies in the

|F |Gm |Dm |
past How you moved is all it takes

|C |Bb |A |
To sing a song of when I loved The Prettiest Star

Solo as for intro but second time slide up an octave and finish on a high C




Ваше мнение



Капча

Рекомендуем