David Bowie, Merry Christmas Mr Lawrence.
Tabbed by Myke, [email protected]

DAVID BOWIE
MERRY CHRISTMAS MR LAWRENCE
Standard Tuning
This isn't actually by David Bowie
It's by Ryuchio Sakamoto but there
Isn't a tab section for him so i'll
Pop it into Bowie's tab section instead.
Intro 1:
|--5-7-5--0-5--|--5-7-5-7-10-7--5-7-5-0-3--|--15--14--10------|
|--------------|---------------------------|--------------12--|
|--------------|---------------------------|------------------|
|--------------|---------------------------|------------------|
|--------------|---------------------------|------------------|
|--------------|---------------------------|------------------|
Intro 2:
|--5-7-5--0-5--|--5-7-5-7-10-7--5-7-5-3-0--|--2---------------|
|--------------|---------------------------|------------------|
|--------------|---------------------------|------------------|
|--------------|---------------------------|------------------|
|--------------|---------------------------|------------------|
|--------------|---------------------------|------------------|
Extra Part 1:
|--3-0-3-0-3-0-3-0-2-0-2-0-2-0-2-0--|
|-----------------------------------|
|-----------------------------------|
|-----------------------------------|
|-----------------------------------|
|-----------------------------------|
Extra Part 2:
|--0--2----7--9---0--2--|
|-----------------------|
|-----------------------|
|-----------------------|
|-----------------------|
|-----------------------|
Note:
The 'Extra Parts' are the bits you will
Sometimes hear in the background of the
Movie, not Part of the original 'Intro' song
[email protected]




Ваше мнение



Капча

Рекомендуем