From: [email protected] (Guez Ofer)
Subject: CRD: The man who sold the world by David Bowie
X-Newsreader: TIN [version 1.2 PL1]
Date: Fri, 22 Apr 1994 17:28:11 GMT

Some days ago i saw a request for this song.
Here it is, dedicated to the memory Kurt Cobain, who made
A great cover of this song at MTV Unplugged.

Bye
Ofer.

David Bowie - The man who sold the world
****************************************

Introduction: play r1

Dm A7 Dm
We passed upon the stairs, We spoke of was and when
A7 F
Although I wasn't there, he said i was his friend
C Gm A
Which came as some surprise, I spoke into his eyes
Dm C (play r2)
I thought you died alone, a long long time ago
C (play r2) F (r3)
Oh no, not me
Bbm F (r3)
I never lost control
C (r2) F
Your'e face to face
Bbm A (repeat intro. )
With the man who sold the world

I laughed and shook his hand, and made my way back home
I searched for form and land, for years and years i roamed
I gazed a gazely stare at all the millions here
We must have died alone' a long long time ago
Who knows? not me
We never lost control
Your'e face to face
With the man who sold the world

Riffs:
======

R1 is:

A Dm F
E|----------------------------------------------------------------
B|----------------------------------------------------------------
G|--2-2-2-0-2-3-2-0-----2-2-2-0-2-3-2-0-----2-2-2-0-2-3-2-0-------
D|----------------------------------------------------------------
A|----------------------------------------------------------------
E|----------------------------------------------------------------

R2 is: (simply play C Major scale)

C
E|--------------------------------------------------
B|--------------------------------------------------
G|------------2-4-5---------------------------------
D|------2-3-5---------------------------------------
A|--3-5---------------------------------------------
E|--------------------------------------------------

R3: (F Major scale)

F
E|--------------------------------------------------
B|------------3-5-6---------------------------------
G|------2-3-5---------------------------------------
D|--3-5---------------------------------------------
A|--------------------------------------------------
E|--------------------------------------------------

That's all. Enjoy!

Ofer Guez

If you anxious to know my e-mail address, and just too lazy to
Find it in the title, here it is again

[email protected]




Ваше мнение



Капча

Рекомендуем