Fashion
Main Riff
G G F +guitars-> F guitar II Guitar III
|--------------|---------------| |5-5-5----5-5-5-| |---------------|
|--------------|---------------| |6-6-6----6-6-6-| |---------------|
|--------------|-----0---------| |---------------| |---------------|
|5---5---3-----|--------3------| |---------------| |0h2h3-3-3p0h2h3| etc
|5---5---3-----|---------------| |---------------| |---------------|
|3---3---1-----|---------------| |---------------| |---------------|
There's a
|G G F | |Main riff + Fripp fills |
brand new dance but I don't know its name
That people from bad homes do again and again
It's big and it's bland full of tension and fear
They do it over there but we don't do it here
|Bb Ab |
Fashion turn to the left
Fashion turn to the right
Oooh fashion
We are the goon squad and we're coming to town
Beep beep, Beep beep
|Dm |C
Listen to me, don't listen to me Talk to me, don't talk to me
|Dm |F
Dance with me, don't dance with me no Beep beep
C
|-------1----------1-4b--
|1h3p1h3--1-1h3p1h3------
|------------------------
|------------------------
|------------------------
|------------------------
There's a.... (as above)
Outro
|:G F | F |
Oh wop doh doh doh doh doh doh doh
|G |G F :|
Fa fa fa fa fashion




Ваше мнение



Капча

Рекомендуем