David Bowie, China Girl.
Tabbed by Myke Newman, [email protected]

DAVID BOWIE
CHINA GIRL
Standard Tuning
This tab is 1OO% correct
As it is played on the CD
Don't believe me ? try it
Intro/Outro:
|--7-7-5-5--7-7--5-|-7-7--5-5--7-7--5-5-3-3-3/5-5-5-|-5-5-5-5-|
|--7-7-5-5--7-7--5-|-7-7--5-5--7-7--5-5-3-3-3/5-5-5-|-5-5-5-5-|
|------------------|---------------------------------|---------|
|------------------|---------------------------------|---------|
|------------------|---------------------------------|---------|
|------------------|---------------------------------|---------|
Intro Chords:
[G] [Am]
|----3------0----|
|----3------1----|
|----0------2----|
|----0------2----|
|----2------0----|
|----3-----------|
Verse Part 1:
[G] [Am] [G] [Am]
|--3------0------3------0--|
|--3------1------3------1--|
|--0------2------0------2--|
|--0------2------0------2--|
|--2------0------2------0--|
|--3-------------3---------|
Verse Part 2:
[Em] [G] [Am] [B7]
|---------3------0------2--|
|--0------3------1------4--|
|--0------0------2------2--|
|--2------0------2------4--|
|--2------2------0------2--|
|--0------3----------------|
Bridge:
[G] [F] [Am] [D]
|--3------1------0------2--|
|--3------1------1------3--|
|--4------2------2------2--|
|--5------3------2------0--|
|--5------3------0------0--|
|--3------1----------------|
Mid-section/Outro:
[Em] [D9] [C] [B]
|---------2------0------2--|
|--0------5------1------4--|
|--0------2------0------4--|
|--2------0------2------4--|
|--2------0------3------2--|
|--0-----------------------|




Ваше мнение



Капча

Рекомендуем