David Bowie - Cactus
Tabbed By: Myke
EMail: [email protected]
Standard Tuning
Intro:
[A]
|------------------------|
|------------------------|
|--2-2-2--2-2-2--2-2--2--|
|--2-2-2--2-2-2--2-2--2--|
|--0-0-0--0-0-0--0-0--0--|
|------------------------|
Verse:
[A] [C]
|-----------------------------------|
|-----------------------------------|
|---------------------------5--5-5--|
|--2-2-4-4--2-2-4-4--2-2--4-5--5-5--|
|--0-0-0-0--0-0-0-0--0-0--0-3--3-3--|
|-----------------------------------|
Chorus:
[C] [A] [C] [A] [A]
|-------------------------------------------------------------------------|
|-------------------------------------------------------------------------|
|--5-5-5--2-2-2-2-2--5-5-5--2-2-2-2-2----2-2-2-2-2-2-2-2-2-2-2-2-2-2-2-2--|
|--5-5-5--2-2-2-2-2--5-5-5--2-2-2-2-2----2-2-2-2-2-2-2-2-2-2-2-2-2-2-2-2--|
|--3-3-3--0-0-0-0-0--3-3-3--0-0-0-0-0----0-0-0-0-0-0-0-0-0-0-0-0-0-0-0-0--|
|-------------------------------------------------------------------------|




Ваше мнение



Капча

Рекомендуем