David Bowie, Ashes To Ashes.
Tabbed by Myke, [email protected]

DAVID BOWIE
ASHES TO ASHES
Standard Tuning
Intro 1:
|--0--5--7----7--0----5-------0--5--7--|
|------------------------3-------------|
|--------------------------------------|
|--------------------------------------|
|--------------------------------------|
|--------------------------------------|
Intro 2:
|--6----4----6--|
|--6----4----7--|
|--6----5----8--|
|--6----6----8--|
|--8----6----6--|
|--6----4----x--|
Verse:
|--4----1----x----4----x----2--|
|--4----4----6----6----8----2--|
|--5----1----6----5----8----3--|
|--6----1----6----6----8----4--|
|--6----3----4----4----6----4--|
|--4----1----x----x----x----2--|
Bridge :
|--6----1----4----x--|
|--6----1----4----8--|
|--7----2----5----8--|
|--8----3----6----8--|
|--8----3----6----6--|
|--6----1----4----x--|
Chorus:
|--2----4----x----6----2----4--|
|--2----4----6----6----2----4--|
|--3----5----6----6----3----5--|
|--4----6----6----8----4----6--|
|--4----6----4----8----4----6--|
|--2----4----x----6----2----4--|
Then Back Into Intro
Before Verse 2, etc
Outro:
|--6----6----4--|
|--7----6----4--|
|--8----6----5--|
|--8----6----6--|
|--6----8----6--|
|--x----6----4--|




Ваше мнение



Капча

Рекомендуем