David Bowie - 5.15 The Angels Have Gone
Tabbed By: Myke
EMail: [email protected]

Standard Tuning

Intro/Main:

|-----------------------------------------------|
|-----------------------------------------------|
|-----------------------------------------------|
|---------------------0-2-------------0-2-------|
|--------5h7-5-------------2-3-------------2-3--|
|--0-3p0----------------------------------------|

Chorus:

|--------------------------------|
|--------------------------------|
|--------------------------------|
|--4--------2--------------------|
|--4--------2--------------------|
|--2--------0--(0)b--------r(0)--|

Thats The Whole Song.
1OO% Original Tab
[email protected]




Ваше мнение



Капча

Рекомендуем