From: demidrol2004 [email protected]
БИ 2 - "СЕРЕБРО"
Прислал Серёга!! [email protected]
Предупреждаю сразу!! Лучше внимательно слушайте песню, просто так вам будет легче разобраться!!!!!!!
(Где играть, а где не множко останавливаться!!)
Куплет:
Am(V) F Dm(X) E E*
1.---------------------------. 1.-------0-.
2.----5-----1-------10-----0-. 2.------0--.
3.----5-----2-------10-----1-. 3.-----1---.
4.---------------------------. 4.---------.
5.---------------------------. 5.---------.
6.-5----0-1---0-10-----0-0---. 6.-0-0-----.
Припев
Dm(X) E Am(V) F
1.--------------------------------------------------------.
2.-----10-------10-----0-----0-----5-----5-----1-----1----.
3.-----10-------10-----1-----1-----5-----5-----2-----2----.
4.--------------------------------------------------------.
5.--------------------------------------------------------.
6.-10----10-10-----0-0---0-0---0-5---5-5---5-1---1-1------.
Am(V) F
Я не вернусь
Dm(X) E Am(V)
Так говорил когда-то
F Dm(X) E Am(V)
И туман глотал мои слова
F Dm(X) E*
И превращал их в воду
Am(V) F
Я все отдам
Dm(X) E Am(V)
за продолжение пути
F
Оставлю позади
Dm(X) E
Свою беспечную свободу (Слейдующие куплеты играються аналогично)
Припев:
Dm(X) E Am(V)
Hе потерять бы в серебре
F
Ее одну
Dm(X) E
Заветную
Hе по себе
От зтой тихой и чужой зимы
С которой я на ты
Hам не стерпеть друг друга
И до войны
Мне не добраться никогда
Моя безумная звезда
ведет меня по кругу
Припев.
(После припева идёт пройгрыш!! Его лучше просто изоброжать обычными аккордами!! Am F Dm E!!(бой только на 1,2,3,4 струне)
А в облаках
Застыл луны неверный свет
И в нем перемешались города и я
Зову еЈ несмело
Припев.
(Am на 5 ладу-111331);
(F-112331)
(Dm на 10 ладу- в место всего аккорда, можно взять только полное баррэ на 10 ладу)
(Em-001220)
Прошу строго не судить, я просто плохо играю, и подбирал табу с ходу!!




Ваше мнение



Капча