Перебор - бас_3_21_3

Am F
Я не вернусь
Dm E Am F
Так говорил когда-то
Dm E Am F
И туман глотал мои слова
Dm E Am F Dm E
И превращал их в воду

Am F
Я всё отдам
Dm E Am
За продолжение пути
F
Оставлю позади
Dm E Am F Dm E
Свою беспечную свободу

Перебор - бас_3_21_3
Припев:
Dm E Am F
Hе потерять бы в серебре её одну
Dm E
Заветную

Hе по себе
От этой тихой и чужой зимы
С которой я на ты
Hам не стерпеть друг друга
И до войны
Мне не добраться никогда
Моя безумная звезда
Ведет меня по кругу

Припев.

Solo:

1|-5-7-8-7----5h7-5---|-----5--------------|
2|------------------6-|-6-8---8----6h8-6---|
3|--------------------|------------------7-|

1|--------------------|----|---------------|
2|-3--5---8-6-5h7p5-3-|----|-3-3-5---------|
3|--------------------|----|---------2-2-4-|

1|--------------------|-7-7-7-7-7-7-5------|
2|--------8-6-5h7p5-3-|--------------------|
3|-555--2-------------|--------------------|

1|-0-0-0-0-1-0--------|------------5555--7-|
2|-------------3------|-3333--5------------|
3|--------------------|--------------------|

А в облаках
Застыл луны неверный свет
И в нем перемешались города и я
Зову её несмело

Припев.

1|-7-8-7-8-7-8-7-8-7-8-7-8-7-8-7-8-7-8-7-8-|

1|-7-8-7-8-7-8-7-8-7-8-7-8-|




Ваше мнение



Капча