Transcribed by Cyclone

Intro:
E:-------0--0--------0--0--------0--0-------------:
B:------------------------------------------------:
G:------------------------------------------------:
D:------------------------------------------------:
A:------------------------------------------------:
E:-0--0--------2--2--------3--3-----------3--5--3-:

Verse:
Em Em/F# Em/G Em Em/F# Em/G
Я больше не играю со своей душой
Am Am/B Am/C Am Am/B Am/C
Какая есть кому-нибудь сгодится
Em Em/F# Em/G Em Em/F# Em/G
Hо медь - не золото и твой герой
Am Am/B Am/C Am Am/B Am/C
Последний, кем бы ты могла гордиться

Chorus:
Em Emmaj7 Em7 Emmaj7 = [022040]
Остаться в живых Em7 = [022030]
Em6 Em Emmaj7 Em7 Em6 = [022020]
Отчаянный псих
Em6 Am Ammaj7 Am7 Ammaj7 = [x02204]
Hе свой, не чужой Am7 = [x02203]
Am6 Am Ammaj7 Am7 Am6 Am6 = [x02202]
Последний герой

Bridge:
D:-2--2-----2-----2--3-----2--2-----2-----2--3--
A:-2--2-----2-----2--3-----2--2-----2-----2--3-- x2
E:-0--0-----0-----0--1-----0--0-----0-----0--1--

Verse:
Em Em/F# Em/G Em Em/F# Em/G
Все то немного - е на четное не ставь
Am Am/B Am/C Am Am/B Am/C
Когда любовь и слезы не дороже хлеба
Em Em/F# Em/G Em Em/F# Em/G
И кажется, что до земли добраться вплавь
Am Am/B Am/C Am Am/B Am/C
Возможно тем, кто по воде уходит в небо

[Chorus]
[Bridge] x4

|Am|Am/B|Am/C|Asus4| x2

[Chorus] x2
[Bridge] x2
@RealName: Дмитpий ЛиСиЦын ICQ#47861494 ([email protected])
Аааа.... это ты All, нy заходи, садись, деpжи штpафнyю pюмкy чая... =))




Ваше мнение



Капча