Песня расписана полностью для двух гитар.
Вступление:
E|------|--6------------------|--5-------------------|-------------------6--|
B|------|---------------------|-----------------6----|--4----------4h-6-----|
G|------|-------7--7----------|-------7--7-----------|----------------------|
D|------|---------------------|----------------------|----------------------|
A|------|---------------------|----------------------|----------------------|
E|------|---------------------|----------------------|----------------------|

-----6------------|--5------------------|---------------------|
------------------|---------------------|---------------------|
---------7h-8-----|-------8--8----------|-------7-------------|
------------------|---------------------|---------------------|
------------------|---------------------|---------------------|
------------------|---------------------|---------------------|
Часть 1)
Лёва - Distortion guitar:
Большие города....
--------------------||---------------------------|--------------------------|
--------------------||---------------------------|--------------------------|
--------------------||*--------------------------|--------------------------|
--------------------||*--------5-----------5-----|--------5-----------5-----|
--------------------||---5--5--5--5--5--5--5--5--|--5--5--5--5--5--5--5--5--|
--------------10/---||---3--3--3--3--3--3--3--3--|--3--3--3--3--3--3--3--3--|

--------------------------|--------------------------|
--------------------------|--------------------------|
--------8-----------8-----|--------8-----------8-----|
--8--8--8--8--8--8--8--8--|--8--8--8--8--8--8--8--8--|
--6--6--6--6--6--6--6--6--|--6--6--6--6--6--6--6--6--|
--------------------------|--------------------------|

--------------------------|--------------------------|
--------------------------|--------------------------|
--------5-----------5-----|--------5-----------5-----|
--5--5--5--5--5--5--5--5--|--5--5--5--5--5--5--5--5--|
--3--3--3--3--3--3--3--3--|--3--3--3--3--3--3--3--3--|
--------------------------|--------------------------|

--------------------------|--------------------------|
--------------------------|--------------------------|
--------7-----------7-----|--------7-----------7-----|
--7--7--7--7--7--7--7--7--|--7--7--7--7--7--7--7--7--|
--5--5--5--5--5--5--5--5--|--5--5--5--5--5--5--5--5--|
--------------------------|--------------------------|

--------------------------|--------------------------|
--------------------------|--------------------------|
--------------------------|--------------------------|
--------5-----------5-----|--------5-----------5-----|
--5--5--5--5--5--5--5--5--|--5--5--5--5--5--5--5--5--|
--3--3--3--3--3--3--3--3--|--3--3--3--3--3--3--3--3--|

--------------------------|--------------------------|
--------------------------|--------------------------|
--------8-----------8-----|--------8-----------8-----|
--8--8--8--8--8--8--8--8--|--8--8--8--8--8--8--8--8--|
--6--6--6--6--6--6--6--6--|--6--6--6--6--6--6--6--6--|
--------------------------|--------------------------|
........ты ничего не
--------------------------|--------------------------|
--------------------------|--------------------------|
--------5-----------5-----|--------5-----------5-----|
--5--5--5--5--5--5--5--5--|--5--5--5--5--5--5--5--5--|
--3--3--3--3--3--3--3--3--|--3--3--3--3--3--3--3--3--|
--------------------------|--------------------------|
Знала......
--------------------------|-------------------|
--------------------------|-------------------|
--------7-----------7--7--|--7----------------|
--7--7--7--7--7--7--7--7--|--7----------------|
--5--5--5--5--5--5--5--5--|--5----------------|
--------------------------|-------------------|
Часть 2)
Здесь начинается партия Шура - Overdriven guitar,
Причем Leva продолжает играть ритм. Номера тактов указаны(соответств. такты
Звучат одновременно)
Шурик :
1 2
||------------------------|--------------------|
||------------------------|--------------------|
||---------------5--3-----|--------------------|
||------------5--------5--|--------------------|
||---------5--------------|--5------------5----|
||------------------------|--------------------|
3 4 5
-----------------------|-------------------|-----------------------|
-----------------------|-------------------|-----------------------|
-----------------------|-------------------|--------------5--3-----|
-----------------------|-------------------|-----------5--------5--|
--6----5--------6/8----|--6----------------|--------5--------------|
-----------------------|-------------------|-----------------------|
6 7 8
--------------------|----------------6----|--6----5--5-------5/6--|
--------------------|---------------------|-----------------------|
--------------------|---------------------|-----------------------|
--------------------|---------------------|-----------------------|
--5------------5----|--6----5-------------|-----------------------|
--------------------|---------------------|-----------------------|
9
--6----5--5----------||
---------------------||
---------------------||
---------------------||
---------------------||
---------------------||
Лёва:
1 2
||-------------------|--------------------------|
||-------------------|--------------------------|
||-------------------|--------------------------|
||-------------------|--------5-----------5-----|
||-------------------|--5--5--5--5--5--5--5--5--|
||-------------------|--3--3--3--3--3--3--3--3--|
3 4
--------------------------|--------------------------|
--------------------------|--------------------------|
--------------------------|--------8-----------8-----|
--------5-----------5-----|--8--8--8--8--8--8--8--8--|
--5--5--5--5--5--5--5--5--|--6--6--6--6--6--6--6--6--|
--4--4--3--3--3--3--3--3--|--------------------------|
5 6
--------------------------|--------------------------|
--------------------------|--------------------------|
--------8-----------8-----|--------------------------|
--8--8--8--8--8--8--8--8--|--------5-----------5-----|
--6--6--6--6--6--6--6--6--|--5--5--5--5--5--5--5--5--|
--------------------------|--3--3--3--3--3--3--3--3--|
7 8
--------------------------|--------------------------|
--------------------------|--------------------------|
--------------------------|--2--2--2--2--3--3--3--3--|
--------5-----------5-----|--3--3--3--3--1--1--1--1--|
--5--5--5--5--5--5--5--5--|--3--3--3--3--3--3--3--3--|
--4--4--3--3--3--3--3--3--|--1--1--1--1--1--1--1--1--|
9
--------------------------||
--------------------------||
--------------------------||
--3--3--3--3--3--3--3--3--||
--3--3--3--3--3--3--3--3--||
--1--1--1--1--1--1--1--1--||
Теперь повторяются Часть 1,Часть 2.
Часть 3)
Шурик:
1 2 3
||--------6------------5--|------6----8----10----|--------6------------5--|
||--4h-6---------4h-6-----|------4----6----8-----|--4h-6---------4h-6-----|
||------------------------|----------------------|------------------------|
||------------------------|----------------------|------------------------|
||------------------------|----------------------|------------------------|
||------------------------|----------------------|------------------------|
4 5 6
------6----8----6----|--------6------------5--|------6----8----10----|
------4----6----6----|--4h-6---------4h-6-----|------4----6----8-----|
---------------------|------------------------|----------------------|
---------------------|------------------------|----------------------|
---------------------|------------------------|----------------------|
---------------------|------------------------|----------------------|
7 8 9
-12---------------|--6------------------|--5-------------------|
------------------|---------------------|-----------------6----|
------------------|-------7--7----------|-------7--7-----------|
------------------|---------------------|----------------------|
------------------|---------------------|----------------------|
------------------|---------------------|----------------------|
10 11 12
-------------------6--|------------------|--6------------------|
--4----------4h-6-----|------------------|---------------------|
----------------------|------------------|-------7h-8----------|
----------------------|------------------|---------------------|
----------------------|------------------|---------------------|
----------------------|------------------|---------------------|
13 14 15
--5------------------|--------------------|-------------------------||
---------------------|--------------------|-------------------------||
-------8--8----------|--7------------7/---|--19---------------------||
---------------------|--------------------|-------------------------||
---------------------|--------------------|-------------------------||
---------------------|--------------------|-------------------------||
Лёва:
1 2
||--------------------------|--------------------------|
||--------------------------|--------------------------|
||--------------------------|--------------------8-----|
||--------3-----------3-----|--------3-----------8--8--|
||--3--3--3--3--3--3--3--3--|--3--3--3--3--3--3--6--6--|
||--1--1--1--1--1--1--1--1--|--1--1--1--1--1--1--------|
3 4
--------------------------|--------------------------|
--------------------------|--------------------------|
--------------------------|--------------------8-----|
--------3-----------3-----|--------3-----------8--8--|
--3--3--3--3--3--3--3--3--|--3--3--3--3--3--3--6--6--|
--1--1--1--1--1--1--1--1--|--1--1--1--1--1--1--------|
5 6
--------------------------|--------------------------|
--------------------------|--------------------------|
--------------------------|--------------------8-----|
--------3-----------3-----|--------3-----------8--8--|
--3--3--3--3--3--3--3--3--|--3--3--3--3--3--3--6--6--|
--1--1--1--1--1--1--1--1--|--1--1--1--1--1--1--------|
7 8
--------------------------|--------------------------|
--------------------------|--------------------------|
--------7-----------7-----|--------------------------|
--7--7--7--7--7--7--7--7--|--------5-----------5-----|
--5--5--5--5--5--5--5--5--|--5--5--5--5--5--5--5--5--|
--------------------------|--3--3--3--3--3--3--3--3--|
9 10
--------------------------|--------------------------|
--------------------------|--------------------------|
--------------------------|--------8-----------8-----|
--------5-----------5-----|--8--8--8--8--8--8--8--8--|
--5--5--5--5--5--5--5--5--|--6--6--6--6--6--6--6--6--|
--3--3--3--3--3--3--3--3--|--------------------------|
11 12
--------------------------|--------------------------|
--------------------------|--------------------------|
--------8-----------8-----|--------5-----------5-----|
--8--8--8--8--8--8--8--8--|--5--5--5--5--5--5--5--5--|
--6--6--6--6--6--6--6--6--|--3--3--3--3--3--3--3--3--|
--------------------------|--------------------------|
13 14 15
--------------------------|--------------------------|-------------------||
--------------------------|--------------------------|-------------------||
--------5-----------5-----|--------7-----------7-----|--7----------------||
--5--5--5--5--5--5--5--5--|--7--7--7--7--7--7--7--7--|--7----------------||
--3--3--3--3--3--3--3--3--|--5--5--5--5--5--5--5--5--|--5----------------||
--------------------------|--------------------------|-------------------||
Теперь повторяется Часть 2.
Часть 4)
Шурик:
1 2
||-----------------------------|------------------------------|
||-----------------------------|------------------------------|
||*----------------------------|---5--------------------------|
||*-------------7--8----7--8---|------------7--8-----7--8-----|
||----------5------------------|--------5---------------------|
||-----------------------------|------------------------------|
3 4
------------------------------|------------------------------|
------------------------------|-----------6------------------|
---5------------------5-------|---------------8--7----5--7---|
--------------7--8--------8---|---7--------------------------|
----------5-------------------|------------------------------|
------------------------------|------------------------------|
5
------------------------------||
------------------------------||
-----------------------------*||
---7-------------------------*||
------------------------------||
------------------------------||
Лёва:
1 2
||--------------------------||--------------------------|
||--------------------------||--------------------------|
||--------------------------||*-------------------------|
||--3--3--3--3--3--3--3--3--||*-------5-----------5-----|
||--3--3--3--3--3--3--3--3--||--5--5--5--5--5--5--5--5--|
||--1--1--1--1--1--1--1--1--||--3--3--3--3--3--3--3--3--|
3 4
--------------------------|--------------------------|
--------------------------|--------------------------|
--------8-----------8-----|--------5-----------5-----|
--8--8--8--8--8--8--8--8--|--5--5--5--5--5--5--5--5--|
--6--6--6--6--6--6--6--6--|--3--3--3--3--3--3--3--3--|
--------------------------|--------------------------|
5
--------------------------||----
--------------------------||----
--------7-----------7----*||----
--7--7--7--7--7--7--7--7-*||----
--5--5--5--5--5--5--5--5--||--5-
--------------------------||--3-




Ваше мнение



Капча