Artist: Ben Folds Five
Title: 1 Angry Dwarf and 200 solemn faces
Album: Whatever and Ever Amen
Tabbed by :Chris Bostion ([email protected])
A Member of the BTA Army - www.basstabarchive.com
You may distribute this tab as long as you include this header
(if you dont we will hunt you down!!!!)

Opening riff:
-----------------------------------------------------------------------------------|
-----------------------------------------------------------------------------------|
------------------------------------5555555555555555---------------|
--7777777777777777---------------------------------------7777--|
-----------------------------------------------------------------------------------|
-----------------------------------------------------------------------------------|
----55------------77--------------------------------------------------------|
--------------33---------77--567-----------------------------------------|
-----------------------------------------------------------------------------------|
-----------------------------------------------------------------------------------|
----55------------77----------999---------------------------------------|
--------------33---------------------------------------------------------------|
Main Riff:
----------------------------------------------------------------------------------|
------------------567-----------------4-55----55-------444-------------|
-----------567-----------------------------------------------------------------|
----567-------------------567--------------3------3-----------------------|
----------------------------------------------------------------------------------|
------------------567---------------4-55------5-444---------------------|
-----------567-----------------------------5----------------------------------|
----567------------------567---------------3-------------------------------|
well that is about it for that song so if you have any questions or comments feel free to email me




Ваше мнение



Капча

Рекомендуем