1|----------9-----------------------------------9---------------------
2|---9--8-9----10-----------9--7---------9--8-9----10----7------7-----
3|-------------------8--7-8------9-8--6---------------------9-8---9---
4|--------------------------------------------------------------------
5|--------------------------------------------------------------------
6|--------------------------------------------------------------------

1|----------9-----------------------------------9--7------------------
2|---9--8-9----10-----------9--7---------9--8-9------10-9-7--7-----7--
3|-------------------8--7-8------9-8--6------------------------9-8---6
4|--------------------------------------------------------------------
5|--------------------------------------------------------------------
6|--------------------------------------------------------------------

Аккорды песни :

Dmb Fm# Ab A Ab10+ Dm Gm A#
1|---4---2---4---5---8------5---3---6---
2|---5---2---4---5---4------6---3---6---
3|---6---2---5---6---5------7---3---7---
4|---6---4---6---7---4------7---5---8---
5|---4---4---6---7---6------5---5---8---
6|---4---2---4---5---4------5---3---6---

Dmb Fm#
Под мелодию метели и под зимний вьюги вальс,
G# Dmb G#
Две снежинки к нам летели, молча падая на нас
Dmb Fm#
И уснув в своей печали и забыв про холода,
A Ab Ab10+
Нас с тобой не замечая ,исчезали навсегда.

Dmb Fm#
Ностальгия постучала в мои двери ,
A Ab
В эту зимнюю загадочную ночь.
Dm# Fm#
Никому уже на свете я не верю.
Ab Dmb
Только ты одна сумеешь мне помочь.

Dmb Fm#
Как наверное когда-то в белоснежной тишине,
G# Dmb G#
Зимней песней снегопада ,всё исчезнет как во сне.
Dmb Fm#
Только эти две снежинки, одиноко и любя,
A Ab Ab10+
Будут спать как на картинке на ладони у тебя.

Dm Gm
Ностальгия постучала в мои двери
A# A
В эту зимнюю загадочную ночь
Dm Gm
Никому уже на свете я не верю
A Dm
Только ты одна сумеешь мне помочь




Ваше мнение



Капча