аккорды под вступление - Am D7 G C Am н7 Em (E7)

q e н e e e e q
E---10-----8--0--------------|--(0)--------0--2--3--5-----|
B-4:-------------------------|----------3-----------------|
G-4:-------------------------|----------------------------|

q e н e e e e q
E---8-----7------------------|-------------------2--3-----|
B------------3---------------|--(3)-----1--3--5-----------|
G----------------------------|----------------------------|

q e н e e e e e e
E---7-----5------------------|-------------------0--2--3--|
B------------1---------------|--(1)-----0--2--4-----------|
G----------------------------|----------------------------|

e e e e q q e н
E---(3)-----0--2--3--5--7----|--10-----8--12--------------|
B----------------------------|----------------------------|
G----------------------------|----------------------------|

e e e e q q e н
E---(12)--------0--2--3--5-----|--8-----7--10-------------|
B------------3-----------------|--------------------------|
G------------------------------|--------------------------|

e e e e q q e н
E---(10)--------------2--3-----|--7-----5--8--------------|
B------------1--3--5-----------|--------------------------|
G------------------------------|--------------------------|

e e e e e e
E---(8)--------------0--2--0--|--(0)-----------------||
B-----------0--2--4-----------|----------------------||
G-----------------------------|----------------------||

Em Am
Белая гвардия, белый снег, белая музыка революции
D7 G
Белая женщина, нервный смех, белого платья слегка коснуться.
Em Am
Белой рукой распахнуть окно, белого света в нем не видя
D7 G
Белое выпить до дна вино, в красную улицу в белом выйти...

Припев:
Em Am
Когда ты вернешься, все будет иначе, и нам бы узнать друг друга.
D7 G
Когда ты вернешься, а я не жена, и даже не подруга.
C Am
Когда ты вернешься, ко мне так безумно тебя любившей в прошлом.
н7 Em E7
Когда ты вернешься, увидишь, что жребий давно и не нами брошен ...

тут надо сыграть вступление.

Сизые сумерки прошлых лет робко крадутся по переулкам.
В этом окне еле брезжит свет. ноты истрепаны, звуки гулки.
Тонкие пальцы срывают аккорд. нам не простят неразумного жара.
Бьются в решетку стальных ворот пять океанов земного шара.

основное соло(повторяет мелодию припева).

(зацените как звучат g#-a-g#) ;-)

E-------7-----5---3-2н3p2------0---|
B-0--------------------------------|
G----------------------------------|
D----------------------------------|

E----------------------------------|-/5-------3-----2--0------|
B-5-5-3---5-3---1-0--1--3--1-0--1--|-----------------------3--|
G----------------------------------|--------------------------|
D----------------------------------|--------------------------|

E----------------------------------|--3-------2-----0---------|
B-3-3-1---3-1-----------1----------|-------------------3---1--|
G---------------4-3--4-----4-3--4--|--------------------------|
D----------------------------------|--------------------------|

E----------------------------------|--2-------0---------------|
B-1-1-0---1-0-----------0----------|----------------4--1---0--|
G---------------2-1--2-----2-1--2--|--------------------------|
D----------------------------------|--------------------------|

e----------------------------------|--------------------------|
B----------------------------------|--------------------------|
G-2-2-2---4-2-----------2----------|--------------------------|
D---------------5-4--5-----5-4--5--|--------------------------|

Красный трамвай простучал в ночи, красный закат догорел в бокале.
Красные, красные кумачи с красных деревьев на землю упали.
Я не ждала тебя в октябре. Виделись сны, я листала сонник.
Красные лошади на заре бились копытами о подоконник...

Припев (Первая половина).
Когда ты вернешься, вернешься в наш город обетованный
Когда ты вернешься, такой невозможный и такой желанный...

потом опять вступление.

Tabbed by Dead Moroz (с помощью Ксаверы)
28 marcн 1997. 20:12.




Ваше мнение



Капча

Комментарии

елена-фомина
извеняюсь пока разберешься во всех примудростях компа и время упускаешь тем не менее песня отчаянная спасибо64
Юлия
Песня очень хорошая я её услышала первый раз в лагере
Kate
Обожаю эту песню:))СУПЕР!!
Александр
песня класс.. ток грустная..
АпТиМиСтОчКа
эту песенку первый раз в лагере услышала) Сашенька, мой любимый(вжатый), играл.. уже пять лет не виделись.. песня просто ностальгия((
Лидия
Да,я вас полностью поддерживаю!
катя
я очень люблю эту песню! да под гитару классно!!
анна
да, замечательная)) сама её играю, но только знаю первый куплет, но теперь все три))
Сергей
Замечательная песня особенно перод костром и под гитару