NO SLEEP TILL BROOKLYN
ALBUM: LICENSED TO ILL
BEASTIE BOYS
KERRY KING SOLO

solo 1
bar---------------------
e:|------------------------------------------------------------------------|
B:|-16b-(16)-16b-(16)-16b-(16)-16b-(16)-16b-----0h7p0-10p0-7p0--0h5p0-7p0-|
G:|------------------------------------------------------------------------|
D:|------------------------------------------------------------------------|
A:|------------------------------------------------------------------------|
E:|------------------------------------------------------------------------|
bar
e:--------------17-18-20-17-18-17------------------------------------------|
B:--------------------------------20-17-18-20-18-17-18-17------------------|
G:-2b-(2)-(2)---------------------------------------------19-16-17-19-17p16|
D:-------------------------------------------------------------------------|
A:-------------------------------------------------------------------------|
E:-------------------------------------------------------------------------|

e:--------------------------------------------------------------------18b~~-|
B:--------------------------------------------------------------------------|
G:--------------------------------------------------------------------------|
D:-19-16-17-19-17-16-17-16--------------------------------------------------|
A:-------------------------19-16-17-19-17-16--------------------------------|
E:-------------------------------------------19-16-17-19-17-16-17-16-------|
bar
e:-------18b------------------------------|
B:----------------------------------------|
G:-0--------------------------------------|
D:----------------------------------------|
A:----------------------------------------|
E:----------------------------------------|
solo 2
bar bar bar bar
e:-------x-----------------------------------------------------------------|
B:-------x-----------19b-(19)---------------------------------4-----/20-20b|
G:-3------------------------------------16b-16b--2b-2b-2b---6---------------|
D:---------------------------------15--------------------------------------|
A:-----------0--(0)------------19------------------------------------------|
E:--------------------------------------------------------------------------|
bar bar bar bar bar bar
e:---------------17b---x--------------------24----------------------------|
B:20b-20---------------x------20----20----------------19b------19b-----19-|
G:---------16--------------0-------0------0-------0--0-----0--0-----0-0-----|
D:--------------------------------------------------------------------------|
A:--------------------------------------------------------------------------|
E:--------------------------------------------------------------------------|
vib. bar
e:----------------------------------|
B:---19-19----19----(19)------------|
G:-0--------------------------------|
D:----------------------------------|
A:----------------------------------|
E:----------------------------------|
the riffs
tune
eb
Bb
Gb
Db
Ab
Eb
eb:-------------------------|
Bb:-------------------------|
Gb:-------------------------|
Db:-2--2----5--7----9--5----|
Ab:-2--2----5--7----9--5----|
Eb:-0--0----3--5----7--3----|

:------------------|
:------------------|
:------------------|
:-2--2-------------|
:-2--2-------------|
:-0--0-------------|

:------------------------------|
:------------------------------|
:------------------------------|
:-9--5---2--2------------------|
:-9--5---2--2------------------|
:-7--3---0--0------------------|

:--------------------------|
:--------------------------|
:--------------------------|
:-2---5----7---9---5-------|
:-2---5----7---9---5-------|
:-0---3----5---7---3-------|




Ваше мнение



Капча

Рекомендуем