Sweet Sir Galahad
Joan Baez
Woodstock 1969

Tabbed by Thomas Antonovich
aka CD Kase
ICQ: 534899
email: [email protected]

CAPO ON 4th FRET!!!!

Chords:

G G7M Em Am D C B

E--3------3-----0-----0----2----0----x----------------------------------------------------|
B--0------0-----0-----1----3----1----x----------------------------------------------------|
G--0------0-----0-----2----2----0----4----------------------------------------------------|
D--0------0-----2-----2----0----2----4----------------------------------------------------|
A--2------2-----2-----0----x----3----2----------------------------------------------------|
E--3------2-----0-----x----x----x----x----------------------------------------------------|

VERSE
G G G7M
Sweet Sir Galahad came in

Em
In the middle of the night

Am (Switch between Am and Asus2 here)
When the moon was in the yard

FILL 1

E--0---------------------------|
B-----3--1--0h1p0-----0--0h1---|
G------------------2-----------|
D------------------------------|
A------------------------------|
E------------------------------|

D(switch between picking open D and A string)
Took her hand in his and

Shook the long hair from his neck
Em (Switch picking the open E and 2nd fretted A string)
And he told her she'd been working much too hard

play VERSE progression

It was true that ever since the day
Her crazy man had passed away
To the land of poet's pride
(FILL 1)
She laughed and talked a lot
With new people on the block
But always at evening time she cried

CHORUS

C B
And heres to the dawm
D
Of their days

BRIDGE Progression (Played with humming after 1st Chorus)

G----G7M----Em-----B----C----B----Am----Em

VERSE 3 & 4

She moved her head a little down
On the bed until it rested
Softly on his knee
(FILL 1)
There, she dropped her smile
And there, she sighed a while
And told him all the sadness of those years
That numbered three

Well ya know I think my fates belated
'Cuz of all the hours I waited for
The day, when I'd no longer cry
(FILL 1)
Get myself to work by eight
But oh was I born too late
And doo you think Ill fail
At every single thing I try

CHORUS

(Play regular VERSE progression ONCE)
He just put his arm around her
And that's the way I found her
Eight months later to the day
(FILL 1)
Lines of a smile erased
The tear tracks upon her face
A smile that could linger, even stay

(Play BRIDGE Progression)
Sweet Sir Galahad went down
With his gay bride of flowers
The prince of the hours
Of her lifetime

CHORUS

OUTRO

G----G7M----Em




Ваше мнение



Капча