artist: badly drawn boy
song: pissing in the wind
album: hour of bewilderbeast
the chords are:
C Am G F
heres a riff to go with it (this has a special name which
i cant remember):
e)-------------------------------------------|
B)-------------------------------------------|
G)---------0---------0---------2---------2---|
D)----2--2------2--2------2--2------2--2-----|
A)--3---------3---------0---------0----------|
E)-------------------------------------------|
e)-------------------------------------------|
B)-------------------------------------------|
G)--------0--------0-----------2---------2---|
D)----0--------0----------3--3------3--3-----|
A)------2--------2------3---------3----------|
E)--3--------3-------------------------------|
repeat that throughout and end on a C.
enjoy :o)
email me @ [email protected]





Ваше мнение



Капча