Badly Drawn Boy
Once Around The Block
I think this is the right tab for the cool guitar bit, this is
my first tab so sorry for any mistakes. The timing
should not be too hard to work out if you listen to the track.
7p5 means play fret7, pull off to 5.
5h7 means play fret 5, hit 7.
e|--------------------------------------------------------|
B|-------------------5-----------------------6------------|
G|-7p5---5---7p5---7---7---5---5------5---5--------5-7-5--|
D|-----7---------7-----------7---7------7-----------------|
A|-----------------------------------------------8--------|
E|--------------------------------------------------------|
e|--------------------------------------------------------|
B|--------------------------------------------------------|
G|-7-5-7-5------5--5---5-5h7--5----------5-------5---5----|
D|-----------7-------------------7--5--7---7---7---7------|
A|--------------------------------------------------------|
E|--------------------------------------------------------|
e|--------------------------------------------------------|
B|-----------------5--------------------------------------|
G|--7p5---5----7p5---7----5---5---5---7p5---5-------------|
D|------7---7---------------7---7---------7---------------|
A|--------------------------------------------------------|
E|--------------------------------------------------------|
Oliver Deakin
If you want to send any comments, e-mail [email protected]





Ваше мнение



Капча