Baby Blue by Badfinger From the Apple release "Straight Up"
Written by Pete Ham 1972, Digitally remastered 1993.
All Rights Reserved by Capitol Records Inc.
Used for Educational Purposes.
Transcribed by Robert Leatherman, Student at the University of Northern Iowa.
Capo on 2nd fret Numbers represent fret positions in reference to capo.
^^^^^^^^^^^^^^^^
Intro:
----------------0--0--0--0--0-----------------------------------------
--------2-------2--3--2--3--2----------2------------------------------
--------2-------2--2--2--2--2----------2------------------------------
-----2----------2--2--2--2--2-------2-----------------2--0------------
--0---------0--------------------0----------0----2--4-------4--2--0---
----------------------------------------------------------------------

|---4--4--4-----4--4--4-----2--2--2----------------------------------
|---5--5--5-----5--5--5-----3--3--3----------------------------------
|---4--4--4-----4--4--4-----2--2--2-----------2----------2-----------
|---2--2--2-----2--2--2-----0--0--0-------4-----------2--------------
|---------------------------------------5-------5----4------4--------
|--------------------------------------------------------------------
Guess I got what I deserved .....
---3--3--3-----2--2--2----------------------------------------------|
---0--0--0-----3--3--3-----------2----------------------------------|
---0--0--0-----2--2--2-----------2----------------------------------|
---0--0--0-----0--0--0--------2-----------------2--0----------------|
---2--2--2----------------0-----------0---2--4--------4--2--0-------|
---3--3--3----------------------------------------------------------|
Kept you waiting there too long my love
|---4--4--4-----4--4--4-----2--2--2----------------------------------
|---5--5--5-----5--5--5-----3--3--3----------------------------------
|---4--4--4-----4--4--4-----2--2--2-----------2----------2-----------
|---2--2--2-----2--2--2-----0--0--0-------4-----------2--------------
|---------------------------------------5-------5---4------4---------
|--------------------------------------------------------------------
All that time without a word
---3--3--3-----2--2--2----------------------------------------------|
---0--0--0-----3--3--3-----------2----------------------------------|
---0--0--0-----2--2--2-----------2----------------------------------|
---0--0--0-----0--0--0--------2-----------------2--0----------------|
---2--2--2----------------0-----------0---2--4--------4--2--0-------|
---3--3--3----------------------------------------------------------|
Did you really think that I'd forget
---5--5--5--------------------------------2---------2-----------------------|
---4--4--4--------------------------------3---------3-----------------------|
---5--5--5------------------1--4--2-1-----4---------2-----------------------|
---2--2--2-----------2---4------------2-4-4---------4-----------------------|
------------------------------------------2---------5-----------------------|
----------------------------------------------------------------------------|
And I'd regret The special love I have for you....
-----------------2----------------------------------------------------------|
----------3--------3--------------------------------------------------------|
--------2---2---------------------------------------------------------------|
-----4---------4------------------------------------------------------------|
---5------------------------------------------------------------------------|
-----------------------------------------------------------------------------|
.....
----------------0--0--0--0--0-----------------------------------------
--------2-------2--3--2--3--2----------2------------------------------
--------2-------2--2--2--2--2----------2------------------------------
-----2----------2--2--2--2--2-------2-----------------2--0------------
--0---------0--------------------0----------0----2--4-------4--2--0---
----------------------------------------------------------------------
My baby blue...
|---4--4--4-----4--4--4-----2--2--2----------------------------------
|---5--5--5-----5--5--5-----3--3--3----------------------------------
|---4--4--4-----4--4--4-----2--2--2-----------2----------2-----------
|---2--2--2-----2--2--2-----0--0--0-------4-----------2--------------
|---------------------------------------5-------5----4------4--------
|--------------------------------------------------------------------
All those days became so long...
---3--3--3-----2--2--2----------------------------------------------|
---0--0--0-----3--3--3-----------2----------------------------------|
---0--0--0-----2--2--2-----------2----------------------------------|
---0--0--0-----0--0--0--------2-----------------2--0----------------|
---2--2--2----------------0-----------0---2--4--------4--2--0-------|
---3--3--3----------------------------------------------------------|
Did you really think I'd do you wrong
|---4--4--4-----4--4--4-----2--2--2----------------------------------
|---5--5--5-----5--5--5-----3--3--3----------------------------------
|---4--4--4-----4--4--4-----2--2--2-----------2----------2-----------
|---2--2--2-----2--2--2-----0--0--0-------4-----------2--------------
|---------------------------------------5-------5---4------4---------
|--------------------------------------------------------------------
Dixie when I let you go...
---3--3--3-----2--2--2----------------------------------------------|
---0--0--0-----3--3--3-----------2----------------------------------|
---0--0--0-----2--2--2-----------2----------------------------------|
---0--0--0-----0--0--0--------2-----------------2--0----------------|
---2--2--2----------------0-----------0---2--4--------4--2--0-------|
---3--3--3----------------------------------------------------------|
Thought you'd realize that I would Know,
---5--5--5--------------------------------2---------2-----------------------|
---4--4--4--------------------------------3---------3-----------------------|
---5--5--5------------------1--4--2-1-----4---------2-----------------------|
---2--2--2-----------2---4------------2-4-4---------4-----------------------|
------------------------------------------2---------5-----------------------|
----------------------------------------------------------------------------|
I would show The special love I have for you....
-----------------2----------------------------------------------------------|
----------3--------3--------------------------------------------------------|
--------2---2---------------------------------------------------------------|
-----4---------4------------------------------------------------------------|
---5------------------------------------------------------------------------|
----------------------------------------------------------------------------|
.....
----------------0--0--0--0--0-----------------------------------------
--------2-------2--3--2--3--2----------2------------------------------
--------2-------2--2--2--2--2----------2------------------------------
-----2----------2--2--2--2--2-------2-----------------2--0------------
--0---------0--------------------0----------0----2--4-------4--2--0---
----------------------------------------------------------------------
My baby blue...

--4--4--4--4--2--2--2--2--2--2--2--2---4--4--4--4---4-4-4-4------------
--5--5--5--5--2--2--2--2--2--2--2--2---5--5--5--5---5-5-5-5------------
--6--6--6--6--2--2--2--2--2--2--2--2---6--6--6--6---4-4-4-4------------
--6--6--6--6--4--4--4--4--3--3--3--3---6--6--6--6---6-6-6-6------------
--4--4--4--2--4--4--4--4--4--4--4--4---4--4--4--4---4-4-4-4------------
--------------2--2--2--2--2--2--2--2-----------------------------------
What can I do... what can I say
1---1-----0--0-----------------------------------------
1---1-----1--1------------0----------------------------
2---2-----0--0------------0----------------------------
3---3-----2--2---------0----------------0--------------
3---3-----3--3--------------------0--2-----3--2--0-----
1---1---------------3----------3--------------------3--
Cept I need you by my side...





Ваше мнение



Капча