-------------------------------------------------------------------------------
YOU'VE GOT A CHANCE - Bad Religion
-------------------------------------------------------------------------------

By:[email protected]

Intro
e|----------------------------------------------------------------------------|
B|----------------------------------------------------------------------------|
G|--13-13-13-13-13-13-13-13-13--11--13-13-13-13-13-13-13-13-13--11------------|
D|----------------------------------------------------------------------------|
A|--11-11-11-11-11-11-11-11-11---9--11-11-11-11-11-11-11-11-11---9------------|
E|----------------------------------------------------------------------------|

e|----------------------------------------------------------------------------|
B|----------------------------------------------------------------------------|
G|--13-13-13-13-13-13-13-13-13--11--13-13-13--16------------------------------|
D|----------------------------------------------------------------------------|
A|--11-11-11-11-11-11-11-11-11---9--11-11-11--14------------------------------|
E|----------------------------------------------------------------------------|

Pre-Verse
e|----------------------------------------------------------------------------|
B|----------------------------------------------------------------------------|
G|-13-13-13-13-13-13--9--13-13-13-13-13-13-11-9-11-9-6--6-6-6-9---6-6-6-9-----|
D|--------------------------------------------------------------9---------9---|
A|-11-11-11-11-11-11--7--11-11-11-11-11-11--9-7--9-7-4--4-4-4-7-9-4-4-4-7-9---|
E|--------------------------------------------------------------7---------7---|

Verse: x6
e|----------------------------------------------------------------------------|
B|----------------------------------------------------------------------------|
G|--6-6-6--6--6-6-6-6-6-5-5-5-5-----------------------------------------------|
D|--6-6-6--6--7-7-7-7-7-6-6-6-6-----------------------------------------------|
A|--4-4-4--4--7-7-7-7-7-6-6-6-6-----------------------------------------------|
E|------------5-5-5-5-5-4-4-4-4-----------------------------------------------|

Chorus
e|----------------------------------------------------------------------------|
B|----------------------------------------------------------------------------|
G|-9----------------9----------------9----------------------------------------|
D|-9-9-9-11-11-7-7--9-9-9-11-11-7-7--9-9-9-11-11-7-7--6-6-6-6-6-6/13-13-13-13-|
A|-7-9-9-11-11-7-7--7-9-9-11-11-7-7--7-9-9-11-11-7-7--6-6-6-6-6-6-------------|
E|---7-7--9--9-5-5----7-7--9--9-5-5----7-7--9--9-5-5--4-4-4-4-4-4-11-11-11-11-|

Bridge
e|----------------------------------------------------------------------------|
B|----------------------------------------------------------------------------|
G|-8--3--6--5--8------3-------------------------------------------------------|
D|-9--4--6--6--9------4-------------------------------------------------------|
A|-9--4--4--6--9------4-------------------------------------------------------|
E|-7--2-----4--7------2-------------------------------------------------------|

Fill Over Chorus
e|----------------------------------------------------------------------------|
B|----------------------------------------------------------------------------|
G|-16-16-16-11-11-11-11-13-13-13-13-9-9-9-9----------------8-8-8-8-8-8-8-8----|
D|-------------------------------------------3-times-then---------------------|
A|-14-14-14--9--9--9--9-11-11-11-11-7-7-7-7----------------6-6-6-6-6-6-6-6----|
E|----------------------------------------------------------------------------|

Outro Fill
e|-----------------------|---0---0---0---0---0---0---0---0---0---0---0---0---0---0---0---0---|
B|-----------------------|-5---5---5---5---4---4---4---4---4---4---4---4---9---9---9---9-----|
G|-13-13-13-13-13-13-13--|-------------------------------------------------------------------|
D|-----------------------|-------------------------------------------------------------------|
A|-11-11-11-11-11-11-11--|-------------------------------------------------------------------|
E|-----------------------|-------------------------------------------------------------------|

If Anyone knows the solo or has any questions please e-mail me at
[email protected]
[email protected]=============




Ваше мнение



Капча