Song:You ARE (The GovERnmenT)
Band: bAD reLIGION
Album: sUFFer
tabbed by: jUSTINsLATER [email protected]
inTRo
G:---------------------------------------------------------------
D:---------------------------------------------------------------
A:--------------11---4-6-----------11---4-3-------------------------
E:---11----44-------------11--44------------------------------------

VerSe
G:---------------------------------------------------------------
D:--------------3>------------------------------3>----------3>------
A:--4>------6>------4>------6>---1>---4>----6>------4>--6>---
E:-----4>---------------4>---------------4>---------------------
do IT All FroM beGINing AGAIn

rIGht BEfORE tHE cHORuSOUtrO
G:---------------------------------------------------------------
D:---------------------------------------------------------------
A:----4>----6>-------------------------------------------------------
E:---------------------------------------------------------------

ChoruS
G:---------------------------------------------------------------
D:--3----3---6----6-----6-----------------------------------------
A:----6--------6----6-------------------------------------------
E:---------------------------------------------------------------

veRY laST liNE
G:---------------------------------------------------------------
D:---------------------------------------------------------------
A:--3>------6>-------3---------------------------------------------
E:-----4>-------6>-----------------------------------------------




Ваше мнение



Капча