Bad Religion
You
Tuning Standar
Tabbed by Alejandro Peсa
This is 99% right my ear isnґt perfect

Intro
------------------------------------
------------------------------------
------------------------------------
--77/88-77/88-77/88-7777------------
--77/88-77/88-77/88-7777------------
--55/66-55/66-55/66-5555------------

verse(x3)
there's a place ...
-------------------------------
-------------------------------
---------10101010-5555---------
----7777-10101010-5555-5555----
----7777-8-8-8-8--3333-5555----
----5555---------------3333----

verse end
-----------------------------
-----------------------------
-------10101010-5555-77-99---
--7777-10101010-5555-77-99---
--7777-8-8-8-8--3333-55-77---
--5555-----------------------

pre-chorus
Cause theres no time for fussing...
---------------------------------------------
---------------------------------------------
---10101010-9999---10101010--9/10/12/10------
---10101010-9999---10101010--9/10/12/10------
---8-8-8-8--7777---8-8-8-8---7/8-/10/8-------
---------------------------------------------

chorus
and you
----------------------
----------------------
----------------------
-77-33-55-77----------
-77-33-55-77----------
-55-11-33-55----------

painted my entired world
----------------
---------------
-------77-99---
-77-33-77-99---
-77-33-55-77---
-55-11---------

but i...
----------------------
----------------------
----------------------
-77-33-5555-----------
-77-33-5555-----------
-55-11-3333-----------

--------------
--------------
--------------
-77-33-2222---
-77-33-2222---
-55-11-0000---

and i wont forget it
(repeat whole song)

outro
and i wont forget it (again)
---------------
---------------
----------54---
-77-22-55-54---
-77-22-55-32---
-55-11-33------(x3)

------------------------
------------------------
------------------------
-77-22-5555--2--3--5--2-
-77-22-5555--2--3--5--2-
-55-11-3333--0--1--3--1-




Ваше мнение



Капча