Bad Religion - Whisper In Time
Standard Tuning: EADGBE
Tabbed by Melissa Parker
This song is ment to have one clean guitar playing full chords, and one distorted playing
bar (power) chords. Solo is for distortion as well. Either way, sounds good done
acoustic, or electric. One of my favorite bands, and I have tabbed it the best I
could for you. Good luck!
> - Slide
h - Hammer on
/ - Bend
Intro: D, C
Intro Solo:
---------------------------------------------------------------
----------------------5--------8-7-5----------------------5----
--4--4--4--5--4-------7--7---------7>5--5>4--4--h7-------------
-------------------7-------------------------------------------
---------------------------------------------------------------
---------------------------------------------------------------
Verse: Em, D, C, Em
Em D
All those stories that my dad told me
C Em
They are just a whisper in time
Em D
All those things that never came to me
C D
They are just a whisper in time
Chorus: C, G, D, G
C, G, D, C, Em
C G
A whisper in time, a whisper in time
D G
Things that I cant shake from my mind
C G
A whisper in time, a whisper in time
D C Em
Moments that just flicker and die
Solo:
-----------------------------------------------------------------------------12----10/12-----12h14--15p14--17--12--17/19--17--15-
->5--5--5--7--8--7--5-------------------8-----10/12--8----------------12-----------10-------------------------------------17-----
---------------------------7--7---------7-----9--------------9-------------------------------------------------------------------
-----------------------------------5--7------------------------------------------------------------------------------------------
---------------------------------------------------------------------------------------------------------------------------------
---------------------------------------------------------------------------------------------------------------------------------




Ваше мнение



Капча