-------------------------------------------------------------------------------
VICTORY - Bad Religion
-------------------------------------------------------------------------------

BY DJOLE [email protected]

Intro
E|---------------------------------------------------
B|---------------------------------------------------
C|---------------------------------------------------
D|--9-9--9-9--9-9--9--9-----------------10-10--9--7-- |x4
A|--7-7--7-7--9-9--10-10--9--9--9--9----10-10--9--7--/
E|------------------------10-10-10-10---8--8---7--5--

Verse
E|--------------------------------------
B|--------------------------------------
C|--------------------------------------
D|--5-5-5-5--7-7-7-7--7-7-7-7--7-7-7-7--
A|--5-5-5-5--5-5-5-5--5-5-5-5--7-7-7-7--
E|--3-3-3-3--------------------5-5-5-5--

E|-------------------------------------------------
B|-------------------------------------------------
C|-------------------------------------------------
D|--5-5-5-5-5-5--5-5-5--7-7--7-7-7--5-5--4-4--2-2--
A|--3-3-3-3-3-3--5-5-5--5-5--7-7-7--3-3--2-2--2-2--
E|---------------3-3-3-------5-5-5------------0-0--

Chorus
E|------------------------------
B|------------------------------
C|------------------------------
D|--5-5-5--5-5-5--7-7-7--9-9-9-- |x2
A|--3-3-3--5-5-5--5-5-5--7-7-7--/
E|---------3-3-3----------------

E|-------------------------------------------------------------
B|-------------------------------------------------------------
C|--9-9-9-9----------------------------------------------------
D|-----------9-9-9-9-9--5-5-5-5-5-5--7-7-7-7-7-7--5-5-5-5-5-5--
A|-----------7-7-7-7-7--5-5-5-5-5-5--5-5-5-5-5-5--3-3-3-3-3-3--
E|----------------------3-3-3-3-3-3----------------------------

Bridge
E|---------------------------------------------------
B|---------------------------------------------------
C|---------------------------------------------------
D|--9-9--9-9--9-9--9--9-----------------10-10--9--7-- |x2
A|--7-7--7-7--9-9--10-10--9--9--9--9----10-10--9--7--/
E|------------------------10-10-10-10---8--8---7--5--

Verse ->

Chorus ->

Bridge ->

E|--------------------------------------------------------------
B|--------------------------------------------------------------
C|--------------------------------------------------------------
D|--5-5-5-5--7-7-7-7--12--11--9--7--5-5-5-5---5-5-5-5--7-7-7-7--
A|--3-3-3-3--5-5-5-5--10--9---7--5--3-3-3-3---3-3-3-3--5-5-5-5--
E|--------------------------------------------------------------

E|-----------------------------------
B|-----------------------------------
C|-----------------------------------
D|--12-12-12-12-12-12---9-9-9-9-9-9--
A|--10-10-10-10-10-10---7-7-7-7-7-7--
E|-----------------------------------

Verse ->

Chorus ->

Outro
E|---------------------------------------------------
B|---------------------------------------------------
C|---------------------------------------------------
D|--9-9--9-9--9-9--9--9-----------------10-10--9--7-- |x4
A|--7-7--7-7--9-9--10-10--9--9--9--9----10-10--9--7--/
E|------------------------10-10-10-10---8--8---7--5--

E|-------------------------------||
B|-------------------------------||
C|-------------------------------||
D|--9--9--9-------10--9--7----9--||
A|--7--9--10--9---10--9--7----7--||
E|------------10--8---7--5-------||

-------------------------------------------------------------------------------




Ваше мнение



Капча