-------------------------------------------------------------------------------
VICTIMS OF THE REVOLUTION - Bad Religion
-------------------------------------------------------------------------------

By: Terry ([email protected])

x - Harmonics

Intro
e|--------------------------------------------------------------------------------------|
B|--------------------------------------------------------------------------------------|
G|--------------------------------------------------------------------------------------|
D|-------------------------7-7-----------------------------------------------------7-7--|
A|--------------2-----2-2--5-5--------------2-----2-2--5-5--------------2-----2-2--5-5--|
E|--5--3--5--3-----5--0-0-------5--3--5--3-----5--0-0--3-3--5--3--5--3-----5--0-0-------|

e|-------------------------------------|
B|-------------------------------------|
G|-------------------------------------|
D|-------------------------------------|
A|--------------2-----2-2-2-2-2-2-2-2--|
E|--5--3--5--3-----5--0-0-0-0-0-0-0-0--|

Verse
e|----0~~----0~~----3~~----0~~----3--2--0-----2----|
B|----1~~----1~~----0~~----3~~-------------3-------|
G|----2~~----0~~----0~~----2~~---------------------|
D|----2~~----2~~----0~~----0~~---------------------|
A|----0~~----3~~----2~~----------------------------|
E|------------------3~~----------------------------|

Verse2
e|----------------------------------------------------------------|
B|----------------------------------------------------------------|
G|----------------------------------------------------------------|
D|----------------------9--7--4-4-4-4--5-5-5-5-----------7-7-7-7--|
A|--2-2--x-x--2-2--x-x--7--5--2-2-2-2--3-3-3-3--5-5-5-5--5-5-5-5--|
E|--0-0--x-x--0-0--x-x--------------------------3-3-3-3-----------|

e|---------------------------------------------------------------------|
B|---------------------------------------------------------------------|
G|--12-12--9-9--7--11--------------------------------------------------|
D|---------------------9-9-9-9---------------12-12-12-12---------------|
A|--10-10--7-7--5---9--7-7-7-7--10-10-10-10--10-10-10-10--12-12-12-12--|
E|-------------------------------8--8--8--8---------------10-10-10-10--|

Chorus
e|--------------------------------------------------------------------------------------|
B|--------------------------------------------------------------------------------------|
G|--------------------------------------------------------------------------------------|
D|-------------------------7-7-----------------------------------------------------7-7--|
A|--------------2-----2-2--5-5--------------2-----2-2--5-5--------------2-----2-2--5-5--|
E|--5--3--5--3-----5--0-0-------5--3--5--3-----5--0-0--3-3--5--3--5--3-----5--0-0-------|

e|-------------------------------------|
B|-------------------------------------|
G|-------------------------------------|
D|-------------------------------------|
A|--------------2-----2-2-2-2-2-2-2-2--|
E|--5--3--5--3-----5--0-0-0-0-0-0-0-0--|

Solo1
e|----|
B|----|
G|----|
D|----|
A|----|
E|----|

Solo2
e|----|
B|----|
G|----|
D|----|
A|----|
E|----|

Outro
e|--------------------------------------------------------------------------------------|
B|--------------------------------------------------------------------------------------|
G|--------------------------------------------------------------------------------------|
D|-------------------------7-7-----------------------------------------------------7-7--|
A|--------------2-----2-2--5-5--------------2-----2-2--5-5--------------2-----2-2--5-5--|
E|--5--3--5--3-----5--0-0-------5--3--5--3-----5--0-0--3-3--5--3--5--3-----5--0-0-------|

e|-------------------------------------|
B|-------------------------------------|
G|-------------------------------------|
D|-------------------------------------|
A|--------------2-----2-2-2-2-2-2-2-2--|
E|--5--3--5--3-----5--0-0-0-0-0-0-0-0--|

Shit!!

Thats the best I can do.
Its about 80%...the 2nd Verse is a little off...and the solos....DUH!

But its the best song on that damned album, and it needed tabbing!!

No Substance RULES!!!!!!!!!

===============================================================================




Ваше мнение



Капча