-------------------------------------------------------------------------------
UNACCEPTABLE - Bad Religion
-------------------------------------------------------------------------------

By: BP [email protected]

intro/chorus:
e|---------------------------------------------------------------------------|
B|---------------------------------------------------------------------------|
G|---------------------------------------------------------------------------|
D|--7-7-7-7---------------------------10--9----------------------------------|
A|--5-5-5-5---8-8-8-8---7-7-7-7-7-7---8---7----------------------------------|
E|------------6-6-6-6---5-5-5-5-5-5------------------------------------------|

verse:
e|---------------------------------------------------------------------------|
B|---------------------------------------------------------------------------|
G|---------------------------------------------------------------------------|
D|--7-7-7-7-7-7-7-7-7-7-7-7--------------------------------------------------|
A|--5-5-5-5-5-5-5-5-5-5-5-5---8---7------------------------------------------|
E|----------------------------6---5------------------------------------------|

it's wicked easy, i don't know why it isn't already up here, sorry i'm not
capable of figuring out the solo though.

===============================================================================




Ваше мнение



Капча