----------------------------------------------------------------------------------------
THE VORACIOUS MARCH OF GODLINESS - Bad Religion
----------------------------------------------------------------------------------------

By: Terry ([email protected])

Intro
e|---------------------------|
B|---------------------------|
G|---------------------------|
D|--12-12-12-12-12-12-12-12--|
A|--10-10-10-10-10-10-10-10--|
E|---------------------------|

Verse
e|----------------------------------------------|
B|----------------------------------------------|
G|----------------------------------------------|
D|-------8~~-------5~~--8-8-8-8-8-8-8-8--10-10--|
A|--5~~--6~~--3~~--3~~--6-6-6-6-6-6-6-6---8--8--|
E|--3~~-------1~~-------------------------------|
..........p.m..........

Chorus
e|----------------------------------------------------------------------------------|
B|----------------------------------------------------------------------------------|
G|----------------------------------------------------------------------------------|
D|-----------8-8-8-8-----------10-10-10-10-----------8-8-8-8-----------10-10-10-10--|
A|--5-5-5-5--6-6-6-6--8-8-8-8---8--8--8--8--5-5-5-5--6-6-6-6--8-8-8-8---8--8--8--8--|
E|--3-3-3-3-----------6-6-6-6---------------3-3-3-3-----------6-6-6-6---------------|

e|------------------------------------------------------------|
B|------------------------------------------------------------|
G|------------------------------------------------------------|
D|--------------------8-8-8-8--7-7-7-7--8-8-8-8--10-10-10-10--|
A|--5-5-5-5--8-8-8-8--6-6-6-6--5-5-5-5--6-6-6-6---8--8--8--8--|
E|--3-3-3-3--6-6-6-6------------------------------------------|
.........p.m.........

Bridge
e|-----------------------------------|
B|-----------------------------------|
G|-----------------------------------|
D|--8-8-8-8-8-8-8-8-8-8-8-8-8-8-8-8--|
A|--6-6-6-6-6-6-6-6-6-6-6-6-6-6-6-6--|
E|-----------------------------------|
.................p.m...............

e|---------------------------------------------------|
B|---------------------------------------------------|
G|---------------------------------------------------|
D|--10-10-10-10-10-10-10-10-10-10-10-10-10-10-10-10--|
A|---8--8--8--8--8--8--8--8--8--8--8--8--8--8--8--8--|
E|---------------------------------------------------|
.........................p.m.......................

Outro
e|-----------------------------------------------------------------|
B|-----------------------------------------------------------------|
G|-----------------------------------------------------------------|
D|-----------8-8-8-8-----------8-8-8-8--3-3-3-3-----------7-7-7-7--|
A|--5-5-5-5--6-6-6-6--5-5-5-5--6-6-6-6--1-1-1-1--3-3-3-3--5-5-5-5--|
E|--3-3-3-3-----------3-3-3-3--------------------1-1-1-1-----------|

==============================================================================




Ваше мнение



Капча