----------------------------------------------------------------------------------
THE STATE OF THE END OF THE MILLENIUM ADDRESS - Bad Religion
----------------------------------------------------------------------------------

By: Terry ([email protected])

Intro
e|--0-0-0--xx------------------------3-3-3------3-3-3------0-0-0--|
B|--0-0-0--xx------------------------3-3-3------3-3-3------0-0-0--|
G|--1-1-1--xx------------------------4-4-4------4-4-4------1-1-1--|
D|--2-2-2--xx--4-4-4--xx--4-4-4--xx--5-5-5--xx--5-5-5--xx--2-2-2--|
A|--2-2-2--xx--4-4-4--xx--4-4-4--xx--5-5-5--xx--5-5-5--xx--2-2-2--|
E|--0-0-0--xx--2-2-2--xx--2-2-2--xx--3-3-3--xx--3-3-3--xx--0-0-0--|

Riff
e|----------------------------------------------------------------|
B|----------------------------------------------------------------|
G|----------------------------------------------------------------|
D|--2-2-2--xx--4-4-4--xx--4-4-4--xx--5-5-5--xx--5-5-5--xx--2-2-2--|
A|--2-2-2--xx--4-4-4--xx--4-4-4--xx--5-5-5--xx--5-5-5--xx--2-2-2--|
E|--0-0-0--xx--2-2-2--xx--2-2-2--xx--3-3-3--xx--3-3-3--xx--0-0-0--|

e|--0-0-0--xx--4-4-4------4-4-4------3-3-3------3-3-3------0-0-0--|
B|--0-0-0--xx--4-4-4------4-4-4------3-3-3------3-3-3------0-0-0--|
G|--1-1-1--xx--3-3-3------3-3-3------0-0-0------4-4-4------1-1-1--|
D|--2-2-2--xx--4-4-4--xx--4-4-4--xx--0-0-0--xx--5-5-5--xx--2-2-2--|
A|--2-2-2--xx--4-4-4--xx--4-4-4--xx--2-2-2--xx--5-5-5--xx--2-2-2--|
E|--0-0-0--xx--2-2-2--xx--2-2-2--xx--3-3-3--xx--3-3-3--xx--0-0-0--|

Outro
e|----0~~----2~~----3~~----0~~----2~~----3~~----|
B|----0~~----2~~----3~~----0~~----2~~----3~~----|
G|----1~~----3~~----0~~----1~~----3~~----4~~----|
D|----2~~----4~~----0~~----2~~----4~~----5~~----|
A|----2~~----4~~----2~~----2~~----4~~----5~~----|
E|----0~~----2~~----3~~----0~~----2~~----3~~----|

I love this song!
And there is no better song to play than at a time like this!
==================================================================================




Ваше мнение



Капча