-------------------------------------------------------------------------------
THE SAME PERSON - Bad Religion
-------------------------------------------------------------------------------

By: Terry ([email protected])

Intro
e|-----------------------------------------------------|
B|-----------------------------------------------------|
G|-----------------------------------------------------|
D|-------------74-4-4-4-------------7-7-7-7-----------|
A|--72-2-2-2--52-2-2-2--75-5-5-5--5-5-5-5--7-7-7-7--|
E|--5-0-0-0-------------53-3-3-3-----------5-5-5-5--|

e|---------------------------------------|
B|---------------------------------------|
G|---------------------------------------|
D|-----------74-4~~-----------7~~--9~~--|
A|--72-2~~--52-2~~--75-5~~--5~~--7~~--|
E|--5-0~~-----------53-3~~------------|

Verse
e|-----------------------------------------------|
B|-----------------------------------------------|
G|-----------------------------------------------|
D|-----------4-4-4-4-----------7-7-7-7-----------|
A|--2-2-2-2--2-2-2-2--5-5-5-5--5-5-5-5--7-7-7-7--|
E|--0-0-0-0-----------3-3-3-3-----------5-5-5-5--|
......................p.m.....................

e|-----------------------------------------------|
B|-----------------------------------------------|
G|-----------------------------------------------|
D|-----------4-4-4-4-----------7-7-7-7--9-9-9-9--|
A|--4-4-4-4--2-2-2-2--5-5-5-5--5-5-5-5--7-7-7-7--|
E|--2-2-2-2-----------3-3-3-3--------------------|

Chorus
e|------------------------------------------------------------------|
B|------------------------------------------------------------------|
G|------------------------------------------------------------------|
D|--4-4-4-4--2-2-2-2---------------4-4-4-4--2-2-2-2-----------------|
A|--2-2-2-2--0-0-0-0--2h5-------2--2-2-2-2--0-0-0-0--2h5-------2~~--|
E|-------------------------5p3----------------------------5p3-------|

e|---------------------------------------------|
B|---------------------------------------------|
G|-------------------------7-7--9-9--7-7--6~~--|
D|-----------7-7-7-----------------------------|
A|--5-5-5-5--5-5-5--7-7-7--5-5--7-7--5-5--4~~--|
E|--3-3-3-3---------5-5-5----------------------|

Bridge
e|--------------------------------------------------------------------------------|
B|--------------------------------------------------------------------------------|
G|--7-7--9-9--7-7--6----7-7--9-9--7-7--6----7-7--9-9--7-7--6----7-7--9-9--7-7--6--|
D|--------------------------------------------------------------------------------|
A|--5-5--7-7--5-5--4----5-5--7-7--5-5--4----5-5--7-7--5-5--4----5-5--7-7--5-5--4--|
E|--------------------------------------------------------------------------------|

e|--------------------------------------------------------------------------------------------|
B|--------------------------------------------------------------------------------------------|
G|--7-7--9-9--11-11--14----7-7--9-9--11-11--14----7-7--9-9--11-11--14----7-7--9-9--11-11--14--|
D|--------------------------------------------------------------------------------------------|
A|--5-5--7-7---9--9--12----5-5--7-7---9--9--12----5-5--7-7---9--9--12----5-5--7-7---9--9--12--|
E|--------------------------------------------------------------------------------------------|

e|-------------------------------------------------------|
B|-------------------------------------------------------|
G|--7h9^9^^--7h9^9^^--7h9^9^^-7h9^9^^--7h9^9^^--7h9^9^^--|
D|-------------------------------------------------------|
A|-------------------------------------------------------|
E|-------------------------------------------------------|

Outro
e|---------------------------------------------------|
B|---------------------------------------------------|
G|--9-9-9-9--98-8-8-8--8/12-12-12-12--12/14-149~~--|
D|---------------------------------------------------|
A|--7-7-7-7--76-6-6-6--6/10-10-10-10--10/12-127~~--|
E|---------------------------------------------------|

e|----------------------2~~~~--|
B|-----------------3~~---------|
G|------------4~~--------------|
D|-------4~~-------------------|
A|--2~~------------------------|
E|-----------------------------|

===============================================================================




Ваше мнение



Капча