---------------------------------------------------------------------------------
THE HIPPY KILLERS - Bad Religion
---------------------------------------------------------------------------------

By: Terry ([email protected])

Intro
e|---------------------------|
B|---------------------------|
G|---------------------------|
D|--9-9-9-9-9-97/9--5-5-----|
A|--7-7-7-7-7-75/7--3-3--5--|
E|------------------------3--|

Verse
e|---------------------------|
B|---------------------------|
G|---------------------------|
D|--9-9-9-9-9-97/9--5-5-----|
A|--7-7-7-7-7-75/7--3-3--5--|
E|------------------------3--|

Chorus
e|-------------------------------------------------------|
B|-------------------------------------------------------|
G|-------------------------------------------------------|
D|--9-9-9-9-9-97/9-------------9-9-9-9-9-97/9----------|
A|--7-7-7-7-7-75/7--3-3--2-----7-7-7-7-7-75/7--3-3--5--|
E|---------------------------3---------------------------|

Bridge
e|--------------------------------------------------|
B|--------------------------------------------------|
G|--------------------------------------------------|
D|--9-9-9-97/9--9-9-9-97/9--9-9-9-97/9--12117--|
A|--7-7-7-75/7--7-7-7-75/7--7-7-7-75/7--10-95--|
E|--------------------------------------------------|

Solo
e|-------------------------------------------------------------------------|
B|------------------------------------12-12-12--13-13-13--15-15-15--17-17--|
G|--9-9-9--11-11-11--12-12-12--14-14---------------------------------------|
D|-------------------------------------------------------------------------|
A|-------------------------------------------------------------------------|
E|-------------------------------------------------------------------------|

e|------------------------------------------------------------------------------|
B|---------17---------17---------17---------17---------17-17-17-17-17-17-17-17--|
G|--14h16------14h16------14h16------14h16------14h16---------------------------|
D|------------------------------------------------------------------------------|
A|------------------------------------------------------------------------------|
E|------------------------------------------------------------------------------|

Outro
e|----------------------------------------------------|
B|----------------------------------------------------|
G|----------------------------------------------------|
D|-------------------------------------9-9-9-97/9~~--|
A|--3-3--2-----3-3--5--3-3--5--3-3--5--7-7-7-75/7~~--|
E|----------3-----------------------------------------|

=================================================================================




Ваше мнение



Капча