-------------------------------------------------------------------------------
THE GREY RACE - Bad Religion
-------------------------------------------------------------------------------

by DJOLE [email protected]

Intro
E|-------------------------------------------
B|-------------------------------------------
C|-------------------------------------------
D|--5----5-5-5-5--7-7-7-7--7--7--10--10-10---
A|--5----5-5-5-5--7-7-7-7--5--7--8---10-10---
E|--3----3-3-3-3--5-5-5-5-----5------8--8----
|< x4 >|

E|-------------------------------------------
B|-------------------------------------------
C|-------------------------------------------
D|--5-5-5-5--7-7-7-7--8-8-8-8--5-5-5-5------- |x2
A|--5-5-5-5--7-7-7-7--8-8-8-8--3-3-3-3-------/
E|--3-3-3-3--5-5-5-5--6-6-6-6----------------

Verse
E|-----------------------------------------------
B|-----------------------------------------------
C|-----------------------------------------------
D|--7-7-7-7--10-10---10-10-10-10--10-10---------- |x4
A|--5-5-5-5--8--8----10-10-10-10--8--8-----------/
E|-------------------8--8--8--8------------------

E|--------------------------------------
B|--------------------------------------
C|--------------------------------------
D|--5-5-5-5--7-7-7-7--7--7--10--10-10---
A|--5-5-5-5--7-7-7-7--5--7--8---10-10---
E|--3-3-3-3--5-5-5-5-----5------8--8----

Chorus

E|-------------------------------------------
B|-------------------------------------------
C|-------------------------------------------
D|--5-5-5-5--7-7-7-7--8-8-8-8--5-5-5-5------- |x4
A|--5-5-5-5--7-7-7-7--8-8-8-8--3-3-3-3-------/
E|--3-3-3-3--5-5-5-5--6-6-6-6----------------

Verse ->

Chorus ->

E|-----------------------------------------------
B|-----------------------------------------------
C|-----------------------------------------------
D|--7-7-7-7--10-10---10-10-10-10--10-10---------- |x2
A|--5-5-5-5--8--8----10-10-10-10--8--8-----------/
E|-------------------8--8--8--8------------------

Chorus ->

E|-----------------------------------------------
B|-----------------------------------------------
C|-----------------------------------------------
D|--7-7-7-7--10-10---10-10-10-10--10-10----------
A|--5-5-5-5--8--8----10-10-10-10--8--8-----------
E|-------------------8--8--8--8------------------

E|-------------------------------------- -----||
B|-------------------------------------- -----||
C|-------------------------------------- -----||
D|--5-5-5-5--7-7-7-7--7--7--10--10-10--- |x4 --5--||
A|--5-5-5-5--7-7-7-7--5--7--8---10-10---/ --5--||
E|--3-3-3-3--5-5-5-5-----5------8--8---- --3--||

-------------------------------------------------------------------------------




Ваше мнение



Капча