THE DEFENSE - Bad Religion

By: Terry ([email protected])

Intro
Guitar1
e|-------------------------------|
B|-------------------------------|
G|--8~~--4-/-6--4--3-/-8~~~~--|
D|--9~~--5-/-7--5--4-/-9~~~~--|
A|--9~~--5-/-7--5--4-/-9~~~~--|
E|--7~~--3-/-5--3--2-/-7~~~~--|
^ v ^ v ^ ^~~~~

e|--------------------------------------------------------------|
B|--------------------------------------------------------------|
G|--4~~~~-----------------4~~~~----4~~~~------------------------|
D|---------4--5--7--5--4------------------4--5--7--5--4---------|
A|-------------------------------------------------------2~~~~--|
E|--------------------------------------------------------------|

Intro
Guitar2
e|-------------------------------------------------------------------|
B|-------------------------------------------------------------------|
G|-------------------------------------------------------------------|
D|-------------------------------------------------------------------|
A|--9-9-9/10-10-109-9-9/10-10-109-9-99-99/10-10-109-9-9/10-10-10--|
E|--7-7-7/-8--8--87-7-7/-8--8--87-7-77-77/-8--8--87-7-7/-8--8--8--|

Verse
e|-------------------------------------------------------------------|
B|-------------------------------------------------------------------|
G|-------------------------------------------------------------------|
D|-------------------------------------------------------------------|
A|--9-9-9/10-10-109-9-9/10-10-109-9-99-99/10-10-109-9-9/10-10-10--|
E|--7-7-7/-8--8--87-7-7/-8--8--87-7-77-77/-8--8--87-7-7/-8--8--8--|

e|-----------------------------------------------------------|
B|-----------------------------------------------------------|
G|-----------------------------------------------------------|
D|-----------------------------------------------------------|
A|--9-9-9/10-10-10-10/-12-109-9-9/10-10-109-9-9/10-10-10--|
E|--7-7-7/-8--8--8--8/-10--87-7-7/-8--8--87-7-7/-8--8--8--|

Pre-Chorus
e|-----------------------------|
B|-----------------------------|
G|-----------------------------|
D|--10-10-10-10-10-------------|
A|---8--8--8--8--8--9-9-9-9-9--|
E|------------------7-7-7-7-7--|

Chorus
e|---------------------------------------------------------------------|
B|---------------------------------------------------------------------|
G|---------------------------------------------------------------------|
D|------------------------------------7-7-7-7-7---------5-5-5/7-7-7/9--|
A|--2-2-2-2-2-2-2-2--5-5-5-5-5-5-5-5--5-5-5-5-5--9-9-9--3-3-3/5-5-5/7--|
E|--0-0-0-0-0-0-0-0--3-3-3-3-3-3-3-3-------------7-7-7-----------------|

e|----------------------------------------------------------------------------|
B|----------------------------------------------------------------------------|
G|----------------------------------------------------------------------------|
D|--9-9-9-9-9-9-9-9--12-12-12-12-12-12-12-12--7-7-7-7-7--4-4-4/5-5-5/7-7-7/9--|
A|--7-7-7-7-7-7-7-7--10-10-10-10-10-10-10-10--5-5-5-5-5--2-2-2/3-3-3/5-5-5/7--|
E|----------------------------------------------------------------------------|

e|----------------------------------------|
B|----------------------------------------|
G|----------------------------------------|
D|----------------------------------------|
A|--2-2-2-2-2-2-2-2--2h3p2h3p2h3p2h3p2h3--|
E|--0-0-0-0-0-0-0-0-----------------------|

Bridge
e|-------------------------------------------|
B|-------------------------------------------|
G|-------------------------------------------|
D|-------------------------------------------|
A|--9-9-9/10-10-109-9-9/10-10-109-9-99-99--|
E|--7-7-7/-8--8--87-7-7/-8--8--87-7-77-77--|

e|-------------------------------------------------------|
B|-------------------------------------------------------|
G|-------------------------------------------------------|
D|-------------------------------------------------------|
A|--10-10-10/12-12-1210-10-10/12-12-1210-10-1010-1010--|
E|---8--8--8/10-10-10-8--8--8/10-10-10-8--8--8-8--8-8--|

Solo
e|--------------------|
B|--------Its---------|
G|--just--variations--|
D|--of-A-and-G-major--|
A|-------chords-------|
E|--------------------|

Outro
e|--------------------------------------------------------|
B|--------------------------------------------------------|
G|--------------------------------------------------------|
D|--------------------------------------------------------|
A|--22-22-22-22--2-2-2-2--22-22-22-22--2-2-2-2--22-22-22--|
E|--00-00-00-00--0-0-0-0--00-00-00-00--0-0-0-0--00-00-00--|
pm pm pm pm ..p.m.. pm pm pm pm ..p.m.. pm pm pm




Ваше мнение



Капча