-------------------------------------------------------------------------
THE BIGGEST KILLER IN AMERICAN HISTORY - Bad Religion
-------------------------------------------------------------------------

By: Aram MandossianINTRO:

e|--------------------------------------------------------------------|
B|--------------------------------------------------------------------|
G|o---------------------------5-5-5-5---------------------------------|
D|o--5/7---X-X---5/7---X-X----5-5-5-5---5-5-5-------------------------|
A|---5/7---X-X---5/7---X-X----3-3-3-3---5-5-5-------------------------|
E|---3/5---X-X---3/5---X-X--------------3-3-3-------------------------|
Repeat
e|--------------------------------------------------------------------|
B|--------------------------------------------------------------------|
G|----------------------------5-5-5----------------------------------o|
D|---5/7---X-X---5/7---X-X----5-5-5--5-------------------------------o|
A|---5/7---X-X---5/7---X-X----3-3-3--5--------------------------------|
E|---3/5---X-X---3/5---X-X-----------3--------------------------------|

e|--------------------------------------------------------------------|
B|--------------------------------------------------------------------|
G|---9---12---11---5---9-9-9-9-9--------------------------------------|
D|---9---12---11---5---9-9-9-9-9--------------------------------------|
A|---7---10---9----3---7-7-7-7-7--------------------------------------|
E|--------------------------------------------------------------------|

VERSE: 4x
e|--------------------------------------------------------------------|
B|--------------------------------------------------------------------|
G|o------------5-5-5--5----------------------------------------------o|
D|o--7-7-7--7--5-5-5--5--5-5-5--5--7-7-7--7--------------------------o|
A|---7-7-7--7--3-3-3--3--5-5-5--5--7-7-7--7---------------------------|
E|---5-5-5--5------------3-3-3--3--5-5-5--5---------------------------|
3x

e|-------------------------------------|------------------------------|
B|-------------------------------------|------------------------------|
G|o----9--9-9---9-10-9--X-X-X-X-X-X---o|----9-----7-----5-----4-------|
D|o----9--9-9---9-10-9--X-X-X-X-X-X---o|----9-----7-----5-----4-------|
A|-----7--7-7---7-8--7--X-X-X-X-X-X----|----7-----5-----3-----2-------|
E|-------------------------------------|------------------------------|

CHORUS:
e|--------------------------------------------------------------------|
B|--------------------------------------------------------------------|
G|o---------------------------5-5-5-5---------------------------------|
D|o--5/7---X-X---5/7---X-X----5-5-5-5---5-5-5-------------------------|
A|---5/7---X-X---5/7---X-X----3-3-3-3---5-5-5-------------------------|
E|---3/5---X-X---3/5---X-X--------------3-3-3-------------------------|
Repeat
e|--------------------------------------------------------------------|
B|--------------------------------------------------------------------|
G|----------------------------5-5-5----------------------------------o|
D|---5/7---X-X---5/7---X-X----5-5-5--5-------------------------------o|
A|---5/7---X-X---5/7---X-X----3-3-3--5--------------------------------|
E|---3/5---X-X---3/5---X-X-----------3--------------------------------|

=======================================================================




Ваше мнение



Капча