this song is really fast and its kinda hard to change your power chords this quickly
but if i can do it anybody can

play once(this part 1 of the intro)
-------------------------------------
-------------------------------------
-------------------------------------
-2-22-22--55-22-5-77-55-7-88---------
-2-22-22--55-22-5-77-55-7-88---------
-0-00-00--33-00-3-55-33-5-66---------

play once(this is part two)
--------------------------------------
--------------------------------------
-----------------------4--------------
-2-22-22-55-22-5-8-7-5-4--------------
-2-22-22-55-22-5-8-7-5-2--------------
-0-00-00-33-00-3-6-5-3----------------

------------------------------------------
------------------------------------------
-9-99-99-12-9-99-------------------7------play like 4 times
-9-99-99-12-9-99-------------------7------
-7-77-77-10-7-77--10101010-9-99-99-5------
-------------------8-8-8-8-7-77-77--------

-------------------------------------
-------------------------------------
-5-55-55-7-77-77---------------------play 3 times
-5-55-55-7-77-77-5-55-55-4-44-44-----
-3-33-33-5-55-55-5-55-55-4-44-44-----
-----------------3-33-33-2-22-22-----

----------------------------------------
-5-55-55-7-77-77------------------------
-5-55-55-7-77-77-5-55-55-5-55-55--------
-3-33-33-5-55-55-5-55-55-5-55-55--------
-----------------3-33-33-3-33-33--------
----------------------------------------

now play parts 1 and 2 of the intro again

after that the guitar player does a little squeal on his hi
e string. That is on the 12th fret if you listen to the song youll know what im talking about

he plays through that whole thing again and then he does an interlude which goes like this
---------------------------------------------------------
---------------------------------------------------------
-9-99-99-9-99-99-7-77-77-7-77-77-------------------------
-9-99-99-9-99-99-7-77-77-7-77-77-5-55-55-5-55-55---------
-7-77-77-7-77-77-5-55-55-5-55-55-5-55-55-5-55-55---------
---------------------------------3-33-33-3-33-33---------

---------------------------------------------------------
---------------------------------------------------------
---------------------------------------------------------
-9-99-99-9-99-99-----------------------------------------
-9-99-99-9-99-99-----------------------------------------
-7-77-77-7-77-77-----------------------------------------

play that 2 times and i think thats it




Ваше мнение



Капча