-------------------------------------------------------------------------
STRUCK A NERVE - Bad Religion
-------------------------------------------------------------------------
Transcription by Jean Francois Lambert, [email protected]
*** Song Structure ***
Intro Solo
Riff A Riff D (x4)
Riff B Riff E
Riff C Riff D (x3)
Riff D (x2) Riff H
Verse 1 Bridge
Riff D (x4) Riff I
Riff E Riff J
Riff D (x3) Riff I
Riff F Riff J
Riff I
Chorus Riff K
Riff G Riff I
Riff H Riff B
Riff G
Riff E Chorus/Outro
Riff G Riff G
Riff H Riff H
Riff G Riff G
Riff B Riff E
Riff C Riff G
Riff D (x3) Riff H
Riff E Riff G
Riff B
Verse 2 Riff D (x3)
Riff D (x3) Riff C
Riff E Riff L
Riff D (x3)
Riff F
Chorus
Riff G
Riff H
Riff G
Riff E
Riff G
Riff H
Riff G
Riff B
Riff C
*** Riffs ***
Riff A End Riff A
|---------------------------------|---------------------------------|
|---------------------------------|---------------------------------|
|-12--------------10--------------|-12-------------(12)-------------|
|-12--------------10--------------|-12-------------(12)-------------|
|-10--------------8---------------|-10-------------(10)-------------|
|---------------------------------|---------------------------------|
Riff B End Riff B
|---------------------------------|---------------------------------|
|---------------------------------|---------------------------------|
|-7--------------(7)--------------|-7--------------(7)--------------|
|-7--------------(7)--------------|-7--------------(7)--------------|
|-5--------------(5)--------------|-5--------------(5)--------------|
|---------------------------------|---------------------------------|
Riff C End Riff C
|---------------------------------|
|---------------------------------|
|-8---------------10--------------|
|-8---------------10--------------|
|-6---------------8---------------|
|---------------------------------|
Riff D End Riff D
|---------------------------------|---------------------------------|
|---------------------------------|---------------------------------|
|-12--12--12--12--12--------------|-15--15--15--15--15--------------|
|-12--12--12--12--12--------------|-15--15--15--15--15--------------|
|-10--10--10--10--10--------------|-13--13--13--13--13--------------|
|---------------------------------|---------------------------------|
Riff E End Riff E
|---------------------------------|---------------------------------|
|---------------------------------|---------------------------------|
|-10------10--10--10--------------|---------------------------------|
|-10------10--10--10--------------|-10------10--10--10--------------|
|-8-------8---8---8---------------|-10------10--10--10--------------|
|---------------------------------|-8-------8---8---8---------------|
Riff F
|---------------------------------|---------------------------------|
|---------------------------------|---------------------------------|
|---------------------------------|-12--------------12--------------|
|-3---------------10--------------|-12--------------12--------------|
|-3---------------10--------------|-10----------10--10--------------|
|-1---------------8---------------|---------------------------------|
|---------------------------------|---------------------------------|
|---------------------------------|---------------------------------|
|-12--------------12--------------|-12--------------12--------------|
|-12--------------12--------------|-12--------------12--------------|
|-10----------10--10--------------|-10----------10--10--------------|
|---------------------------------|---------------------------------|
End Riff F
|---------------------------------|
|---------------------------------|
|-10--------------10--------------|
|-10--------------10--------------|
|-8---------------8---------------|
|---------------------------------|
Riff G End Riff G
|---------------------------------|---------------------------------|
|---------------------------------|---------------------------------|
|-12--------------10--------------|-12--------------12--------------|
|-12--------------10--------------|-12--------------12--------------|
|-10--------------8---------------|-10--------------10--------------|
|---------------------------------|---------------------------------|
Riff H End Riff H
|---------------------------------|---------------------------------|
|---------------------------------|---------------------------------|
|---------------------------------|-12--------------12--------------|
|-3---------------10--------------|-12--------------12--------------|
|-3---------------10--------------|-10----------10--10--------------|
|-1---------------8---------------|---------------------------------|
Riff I End Riff I
|---------------------------------|---------------------------------|
|---------------------------------|---------------------------------|
|-8---8---8---8---8---------------|-10--10--10--10--10--------------|
|-8---8---8---8---8---------------|-10--10--10--10--10--------------|
|-6---6---6---6---6---------------|-8---8---8---8---8---------------|
|---------------------------------|---------------------------------|
Riff J End Riff J
|---------------------------------|---------------------------------|
|---------------------------------|---------------------------------|
|-12--12--12--12--12--------------|-12--12--12--12--12--------------|
|-12--12--12--12--12--------------|-12--12--12--12--12--------------|
|-10--10--10--10--10--------------|-10--10--10--10--10--------------|
|---------------------------------|---------------------------------|

Riff K End Riff K
|---------------------------------|---------------------------------|
|---------------------------------|---------------------------------|
|-12--12--12--12--12--------------|-3---3---3---3---3---------------|
|-12--12--12--12--12--------------|-3---3---3---3---3---------------|
|-10--10--10--10--10--------------|-1---1---1---1---1---------------|
|---------------------------------|---------------------------------|
Riff L End Riff L
|---------------------------------|---------------------------------||
|---------------------------------|---------------------------------||
|---------------------------------|---------------------------------||
|-5-------------------------------|(5)------------------------------||
|-5-------------------------------|(5)------------------------------||
|-3-------------------------------|(3)------------------------------||




Ваше мнение



Капча