This is tab for stranger then fiction by BAd religion..
Tabbed by: Kelly kristek..
This sounds damn close to me.. and i think it's right if anyone has any
Correction then send them to nevada.edu and we'll see who's is better
(sarcasm there)
--------------------------------------------------------------------
Dropped D tuning
Intro
E:----------------------------------------|
B:----------------------------------------|
G:----------------------------------------|
D:-9-9--8-8--6-6--4-4--2-2--1-1--2-2--4-4-|
A:-9-9--8-8--6-6--4-4--2-2--1-1--2-2--4-4-|
E:-9-9--8-8--6-6--4-4--2-2--1-1--2-2--4-4-|
People shock.ing riding smack....And the children are......Heart attack
IF i could fly high above the world would i see a bunch of living dots.....
Verse 1
E:---------------------------------------------------------------------------|
B:---------------------------------------------------------------------------|
G:---------------------------------------------------------------------------|
D:-----9-9-9-9-9-9-9-9--7-7-7-7-7-7-7-7--6-6-6-6-6-6-6-6----4-4-4-4-4-4-4-4-4|
A:-----9-9-9-9-9-9-9-9--7-7-7-7-7-7-7-7--6-6-6-6-6-6-6-6----4-4-4-4-4-4-4-4-4|
E:-----9-9-9-9-9-9-9-9--7-7-7-7-7-7-7-7--6-6-6-6-6-6-6-6----4-4-4-4-4-4-4-4-4|

Windows are watching The streetlights conspiring.. The lampost cant sto
E:---------------------------------------------------------------------------|
B:---------------------------------------------------------------------------|
G:-----------------------------8-8-8-8-8-8-8-8-8-8-8---------9-9-9-9-9-9-9-9-|
D:---9-9-9-9-9-9-9-9-----------8-8-8-8-8-8-8-8-8-8-8---------9-9-9-9-9-9-9-9-|
A:---9-9-9-9-9-9-9-9-----------6-6-6-6-6-6-6-6-6-6-6---------7-7-7-7-7-7-7-7-|
E:---9-9-9-9-9-9-9-9---------------------------------------------------------|
Aahhhhhhh aaaaAHHHHh AHHHHHHHH
P crying repeat 2x
E:--------------------|---------------------------------|
B:--------------------|---------------------------------|
G:--11-11-11-11-11-11-|---------------------------------|
D:--11-11-11-11-11-11-|-2-2-2-2-2--4-4-4-4-4--6-6-6-6-6-|
A:--9--9--9--9--9--9--|-2-2-2-2-2--4-4-4-4-4--6-6-6-6-6-|
E:--------------------|-2-2-2-2-2--4-4-4-4-4--6-6-6-6-6-|

Score.....My human interest.....Stories And the obituary oh yea!
E:---------------------------------------------------------------------------|
B:---------------------------------------------------------------------------|
G:---------------------------------6-6-6-6-6-6-------------------------------|
D:-2-2-2-2-2-2--1-1-1-1-1-1-1-1----6-6-6-6-6-6--4-----------------4-4-4------|
A:-2-2-2-2-2-2--1-1-1-1-1-1-1-1----4-4-4-4-4-4--4-----------------4-4-4------|
E:-2-2-2-2-2-2--1-1-1-1-1-1-1-1-----------------4-----------------4-4-4------|
Cockroach naps rattling traps..How many devils
Figure 1 Play intro agian
E:|---------------------------------------------|
B:|---------------------------------------------|
G:|---------------------------------------------|
D:|--9-9-9--8-8-8--6-6-6--4-4-4-----------------|
A:|--9-9-9--8-8-8--6-6-6--4-4-4-----------------|
E:|--9-9-9--8-8-8--6-6-6--4-4-4-----------------|
. Caringosity killed the kerouac cat, Sometimes truth is stranger then fict
Figure 2
E:---------------------------------------------------------------------------|
B:---------------------------------------------------------------------------|




Ваше мнение



Капча