-------------------------------------------------------------------------------
Stranger Than Fiction- Bad Religion
-------------------------------------------------------------------------------

By: GartWart

***Note: You must tune done 1/2 step.

INTRO VERSE
e|-------------------------|-------------------------------------------------|
B|-------------------------|-------------------------------------------------|
G|-------------------------|-5555-3333-2222------5555------------------------|
D|-------------------------|-5555-3333-2222-5555-5555-2222-3333-5555---------|
A|-33-22-00----------------|-3333-1111-0000-5555-3333-2222-3333-5555---------|
E|----------33-11-00-11-33-|----------------3333------0000-1111-3333---------|

AHH AHH AHH .... AND THE OBITUARY...OH YEAH.
e|-----------|----------------|-----------------------------------------------|
B|-----------|----------------|-----------------------------------------------|
G|-----------|-----------55555|-----------------------------------------------|
D|-33-55-7777|-3333-2222-55555|-5555------------------------------------------|
A|-33-55-7777|-3333-2222-77777|-5555------------------------------------------|
E|-11-33-5555|-1111-0000------|-3333------------------------------------------|

CHORUS
e|---------------------------------------------------------------------------|
B|---------------------------------------------------------------------------|
G|-5555-4444-2222------------------------------5555-3333-2222----------------|
D|-5555-4444-2222-5555-------------------------5555-3333-2222-5555-3333-5555-|
A|-3333-2222-0000-5555-33-22-00----------------3333-1111-0000-5555-3333-5555-|
E|----------------3333----------33-11-00-11-33----------------3333-1111-3333-|

BRIDGE
e|---------------------|-----------------------------------------------------|
B|---------------------|-----------------------------------------------------|
G|-----------55555-----|----------------------5------------------------------|
D|-3333-5555-55555-5555|-7777-5555-33333333--5-5--5--3333-5555---------------|
A|-3333-5555-33333-5555|-7777-5555-33333333-3----5-5-3333-5555---------------|
E|-1111-3333-------3333|-5555-3333-11111111-----3----1111-3333---------------|

Listen to the song for the arrangment and exact rhythm. The outro is the same as the chorus.

===============================================================================




Ваше мнение



Капча