------------------------------------------------------------------------
STRANGE DENIAL - Bad Religion
------------------------------------------------------------------------

by: Neil Misner email: [email protected]

INTRO:
Guitar2: Bm A x4 G A Bm F#
Guitar1:
e--------------------|---------------------------------------------------------
B--------------------|---------------------------------------------------------
G--------------------|--------------------------4-4-4-4-4-4-4-4----------------
D-4-4-4-4-4-2-0------|--4-4-4-4-4-2-0-----------4-4-4-4-4-4-4-4----------------
A---------------4-0--|----------------4-0----4-2-2-2-2-2-2-2-2-4-5-4-5-4-5-4-5
E--------------------|---------------------------------------------------------

VERSE:

(palm-muted) Bm F# G D ADA

(normal) Bm F# G D ADA

pause...

CHORUS:

Guitar2: Bm F# G D A Bm F# G A Bm F# G D A Bm F# G D A
Guitar1:
e-------------3-5-5--------------3-5--------------3-5-5---------------3---5-5-
B-------------3-7-5--------------3-5--------------3-7-5---------------3---7-5-
G-7-6---------4-7-6---7-6--------4-6---7-6--------4-7-6---7-6---------4---7-6-
D-----9-7-----5-7-7-------9-7----5-7-------9-7----5-7-7-------9-7-----5---7-7-
A---------9---5-5-7-----------9--5-7-----------9--5-5-7-----------9---5---5-7-
E-------------3---5--------------3-5--------------3---5---------------3-----5-

Guitar2: Bm A Bm A Bm A Bm F#
Guitar1:
e-7---------------7-------------------7-----------10-9---9----9/7-7-9-10-10^12-10-9---
B---7-----7-7-------7-----7-7-----------7-----7-7-10-10----10-----------------------10
G-----7-7h9-7-7-6-----7-7h9-7-7-----9-----7-7h9-7-------------------------------------
D-------------9-7-------------9-/11---------------------------------------------------
A-------------------------------------------------------------------------------------
E-------------------------------------------------------------------------------------

...improv some solo - I don't really know it. Same chord pattern.

The rest is pretty much the same.

------------------------------------------------------------------------




Ваше мнение



Капча