-------------------------------------------------------------------------------
SPIRIT SHINE - Bad Religion
-------------------------------------------------------------------------------

by DJOLE [email protected]

Intro
E|-------------------------------------------------------- -------
B|--6-6-6-6-6-6--3-3-3-3-3-3--6-6-6-6-6-6--3-3-3-3-3-3---- -------
C|--3-3-3-3-3-3--2-2-2-2-2-2--3-3-3-3-3-3--2-2-2-2-2-2---- -------
D|-------------------------------------------------------- |x2 -5--5--
A|--------------------------------------------------------/ -3--5--
E|-------------------------------------------------------- ----3--

Verse (bass)
E|--------------------------------------------------
B|--------------------------------------------------
C|--------------------------------------------------
D|--------------------------3-3--5-5----------------
A|---------8-8-7-7---5-5-5--------------------------
E|--6-6-6-------------------------------------------

Verse (guitar)
E|----------------------------------------------------- ---------
B|----------------------------------------------------- ---------
C|----------------------------------------------------- ---------
D|--8-8-8-8-8--7-7-7-7-7----8-8-8-8-8--7-7-7-7-7------- |x2 --5--5---
A|--8-8-8-8-8--5-5-5-5-5----8-8-8-8-8--5-5-5-5-5-------/ --3--5---
E|--6-6-6-6-6---------------6-6-6-6-6------------------ -----3---

Chorus
E|-------------------------------------------------------------------
B|-------------------------------------------------------------------
C|-------------------------------------------------------------------
D|--10-10-10-10---5-5-5-5-5--5-5-5-5-5--7-7-7-7-7----5--5------------
A|--8--8--8--8----3-3-3-3-3--5-5-5-5-5--5-5-5-5-5----3--5------------
E|---------------------------3-3-3-3-3------------------3------------

E|--------------------------------------------------------------
B|--------------------------------------------------------------
C|--------------------------------------------------------------
D|--10-10-10-10---5-5-5-5-5--5-5-5-5-5-5-5-5-5------------------
A|--8--8--8--8----3-3-3-3-3--5-5-5-5-5-5-5-5-5------------------
E|---------------------------3-3-3-3-3-3-3-3-3------------------

Bridge
E|--5-5-5-5-5-5--6-6-6--8--8--8--8--8--8--------------
B|--6-6-6-6-6-6--6-6-6--8--8--8--8--8--8--------------
C|--7-7-7-7-7-7--7-7-7--9--9--9--9--9--9--------------
D|--7-7-7-7-7-7--8-8-8--10-10-10-10-10-10------------- |x2
A|--5-5-5-5-5-5--8-8-8--10-10-10-10-10-10-------------/
E|---------------6-6-6--8--8--8--8--8--8--------------

Verse
E|----------------------------------------------------
B|----------------------------------------------------
C|----------------------------------------------------
D|--8--10-7--8--10---8--10-7--8--10------------------- |x6
A|--8--8--5--8--10---8--8--5--8--10-------------------/
E|--6--------6--8----6--------6--8--------------------

E|---------------------------------------------------------------
B|--6-6-6-6-6-6--3-3-3-3-3-3--6-6-6-6-6-6--3-3-3-3-3-3-----------
C|--3-3-3-3-3-3--2-2-2-2-2-2--3-3-3-3-3-3--2-2-2-2-2-2-----------
D|---------------------------------------------------------5--5-- |x2
A|---------------------------------------------------------3--5--/
E|------------------------------------------------------------3--

E|----------------------------------------------------- ---------
B|----------------------------------------------------- ---------
C|----------------------------------------------------- ---------
D|--8-8-8-8-8--7-7-7-7-7----8-8-8-8-8--7-7-7-7-7------- |x2 --5--5---
A|--8-8-8-8-8--5-5-5-5-5----8-8-8-8-8--5-5-5-5-5-------/ --3--5---
E|--6-6-6-6-6---------------6-6-6-6-6------------------ -----3---

Chorus (Outro)
E|-------------------------------------------------------------------
B|-------------------------------------------------------------------
C|-------------------------------------------------------------------
D|--10-10-10-10---5-5-5-5-5--5-5-5-5-5--7-7-7-7-7----5--5------------
A|--8--8--8--8----3-3-3-3-3--5-5-5-5-5--5-5-5-5-5----3--5------------
E|---------------------------3-3-3-3-3------------------3------------

E|-------------------------------------------------------------------
B|-------------------------------------------------------------------
C|-------------------------------------------------------------------
D|--10-10-10-10---5-5-5-5-5--5-5-5-5-5-5-5-5-5-----------------------
A|--8--8--8--8----3-3-3-3-3--5-5-5-5-5-5-5-5-5-----------------------
E|---------------------------3-3-3-3-3-3-3-3-3-----------------------

E|-------------------------------------------------------------------
B|-------------------------------------------------------------------
C|-------------------------------------------------------------------
D|--10-10-10-10---5-5-5-5-5--5-5-5-5-5--7-7-7-7-7--------------------
A|--8--8--8--8----3-3-3-3-3--5-5-5-5-5--5-5-5-5-5--------------------
E|---------------------------3-3-3-3-3-------------------------------

E|----------------------------------------------------------------||
B|----------------------------------------------------------------||
C|----------------------------------------------7-7-7-7-7-7-7-----||
D|--10-10-10-10---5-5-5-5-5--5-5-5-5-5-5-5-5-5--5-5-5-5-5-5-5--7--||
A|--8--8--8--8----3-3-3-3-3--5-5-5-5-5-5-5-5-5-----------------5--||
E|---------------------------3-3-3-3-3-3-3-3-3--------------------||

-------------------------------------------------------------------------------




Ваше мнение



Капча