Tuning : Normal
Notes : h=hammer on p=pull off
Verse:
e|----3--2------------------------------------------------------|
B|-1--3--3------------------------------------------------------|
G|-0--0--2----------------7-------------7h9p7-------------------|
D|-2--0--0------------9-7-----------9-7-------------------------|
A|-3--2-------------7-------------7-----------------------------|
E|----3--------8-10----------8-10-------------------------------|
Chorus:
e|--------------------------------------------------------------|
B|--------------------------------------------------------------|
G|-0--5-----7---------------------------------------------------|
D|-2--5--5--7---------------------------------------------------|
A|-2--3--5--5---------------------------------------------------|
E|-0-----3------------------------------------------------------|
Solo:
e|--------------------------------------------------------------|
B|--------------------------------------------------------------|
G|-9-7----------------------------------------------------------|
D|-----7--7-5-4---4-7--7-5-4-5-4-5-7-5-4--------5-4---5-4-------|
A|--------------7------------------------7-5--3-----3-----------|
E|--------------------------------------------------------------|
e|-10h12p10-10h12p10----10--------------------------------------|
B|-------------------10----10-8-7-5---7-------------------------|
G|----------------------------------7---------------------------|
D|--------------------------------------------------------------|
A|--------------------------------------------------------------|
E|--------------------------------------------------------------|
(I didn't tab how many times to play each chord or strike each note.
Just listen to the song and you'll get it)
Tabbed by: Kevin ([email protected])




Ваше мнение



Капча