Date: Mon, 27 Nov 1995 08:37:17 +0100
From: [email protected] (Prestigiacomo Laurent)
Subject: Tab: Slumber from Bad Religion
This is tab for " Slumber " by Bad Religion..
Album : " Stranger than fiction ".
Tabbed by: Doc: (Prestigiacomo Laurent)
E-MAIL : [email protected]

This song is really a piece of cake: the melody of the guitar is the
Same as the medlody of the vocals...
I first (1)tabbed something usefull if you're not very used to sing & play
At the same time. Then (2) there's the tab that sounds damn close to me...
And i think it's right if anyone has any correction then send them
To me (see above), (no insults, please..)
--------------------------------------------------------------------

Tune ALL string half a tone down
(eb-Bb-Gb-Db-Ab-Eb)

Chords:
F(1-3-3-5-1) F5(1-3-3-x-x)
G(3-2-0-0-3) G5(3-5-5-x-x)
A(0-2-2-2-0) A5(5-7-7-x-x)
C5(x-3-5-5-x)

1. Intro

F - G - A

Then vocals start:
Riff A
E:---------------------------------------------------------------------|
B:---------------------------------------------------------------------|
G:---------------------------------------------------------------------|
D:--3----3-3----2----3-3------------------------------------------0|
A:---------------------------------------------3--3---2--2---3--3---|
E:---------------------------------------------------------------------|
So you're feeling unimportant 'Cuz you've got nothing to say

E:-----------------------------------------------------------------------|
B:-----------------------------------------------------------------------|
G:-----------------------------------------------------------------------|
D:--3----3-3----2----3-3--------------------------------------------0|
A:---------------------------------------------3--3---2--2---3--3---2-|
E:-----------------------------------------------------------------------|




Ваше мнение



Капча