Bad Religion
Slumber
Transcription by Dave Tagg, [email protected]

Verse:
G--------------------------------|
D--3-2---------0-3-2-------------|
A------333-2-3-------33-222-0----|
E--------------------------------|

Chorus:
G--------------------|-------------------|
D--------------------|-------------------|
A--------------------|-----------3-3-------|
E--1-1-3-3-3-5-5-5-|-1-1-3-3-----5-5---|




Ваше мнение



Капча