-------------------------------------------------------------------------------
SKYSCRAPER - Bad Religion
-------------------------------------------------------------------------------

By:Mouz Benkou :[email protected]

[email protected]------------|
B|---------------------------------------------------------------------------|
G|--------------------------------9---------------4--5-----------------------|
D|---6----7-----------------------9---------------4--5-----------------------|
A|---6----7-----------------------7---------------2--3-----------------------|
E|---4----5------------------------------------------------------------------|
Come let us make bricks and burn them hard

e|---------------------------------------------------------------------------|
B|---------------------------------------------------------------------------|
G|---6--------------------------9------------4-------------------------------|
D|---6-------------7------------9------------4-------------------------------|
A|---4-------------7------------7------------2-------------------------------|
E|-----------------5---------------------------------------------------------|
We'll build a city, with a tower for the world

e|---------------------------------------------------------------------------|
B|---------------------------------------------------------------------------|
G|---9---------------4----------6--------------------------------------------|
D|---9---------------4----------6-----------7--------------------------------|
A|---7---------------2----------4-----------7--------------------------------|
E|------------------------------------------5--------------------------------|
And climb so we may reach, anything we may propose

e|--------------------------------------------------------------------------|
B|--------------------------------------------------------------------------|
G|---9---4------------------------------------------------------------------|
D|---9---4---7--------------------------------------------------------------|
A|---7---2---7--------------------------------------------------------------|
E|-----------5--------------------------------------------------------------|
Anything at all..

e|---------------------------------------------------------------------------|
B|---------------------------------------------------------------------------|
G|---6------------4------------------------9---------------------------------|
D|---6------------4-------------7----------9---------------------------------|
A|---4------------2-------------7----------7---------------------------------|
E|------------------------------5--------------------------------------------|
Build me up, tear me down, like a skyscraper

e|---------------------------------------------------------------------------|
B|---------------------------------------------------------------------------|
G|---6------------4----------------------------------------------------------|
D|---6------------4--------------6----------7--------------------------------|
A|---4------------2--------------6----------7--------------------------------|
E|-------------------------------4----------5--------------------------------|
Build me up, then tear down these joining walls

e|---------------------------------------------------------------------------|
B|---------------------------------------------------------------------------|
G|---9------4----------------------------------------------------------------|
D|---9------4------7---------------------------------------------------------|
A|---7------2------7---------------------------------------------------------|
E|-----------------5---------------------------------------------------------|
So they can't climb at all

I know why, you tore it down that day
You thought that if you got caught, we'd all go away
Like a spoiled little baby, who can't come out and play
You had your revenge

Build me up, tear me down, like a skysacraper
Build me up, then tear down these joining walls
So they can't climb at all

(Sorry for the solo but DIY)
That's all,thanks for trying.

===============================================================================




Ваше мнение



Капча