This is one BR's best songs in my opinion, and there are no other tabs for this
song on ug. If you have any questions, comments, or corrections email me at
[email protected]

INTRO
Guitar 1 - Lead Guitar
E:--------------------------------------------------|
B:--------------------------------------------------|
G:-10-1010-9999--77777799--1010-10--9999--77777799--|
D:--------------------------------------------------|
A:-8--8-8--7777--55555577--8--8-8---7777--55555577--|
E:--------------------------------------------------|
E:---------------------|
B:---------------------|
G:-5-555555555--1095-|
D:---------------------|
A:-3-333333333---893-|
E:---------------------|
Guitar 2 - Rhthym
E:----------------------------------------------|
B:----------------------------------------------|
G:--7------10-----------------------------------|
D:--7--8--10--10--------------------------------|
A:--5--8--8--10---------------------------------|
E:------6-------8-------------------------------|
PM---------->
E:----------------
B:----------------
G:--2------------
D:--2------------
A:--0------------
E:----------------
VERSE riffA
E:----------------------------------------------
B:----------------------------------------------
G:--77777-----------555-------------------------
D:--77777-888-33333-555-------------------------
A:--55555-888-33333-333-------------------------
E:--------666-11111-----------------------------
Verse RiffB - Lead Guitar
E:----------------------------------------------
B:----------------------------------------------
G:----------------------------------------------
D:----------------------------------------------
A:-1-1-0-0---------1h3---3----------------------
E:---------3-3-1^0------------------------------
Verse RiffB - Guitar 2
E:----------------------------------------------
B:----------------------------------------------
G:-3----------------5-------------------------
D:-3----------------5-------------------------
A:-1----------------3-------------------------
E:----------------------------------------------

Chorus (Born of the Earth...)
Lead
E:--------------------------------------------------|
B:--------------------------------------------------|
G:-10-1010-9999--77777799--1010-10--9999--77777799--|
D:--------------------------------------------------| repeat
A:-8--8-8--7777--55555577--8--8-8---7777--55555577--|
E:--------------------------------------------------|
E:-----------------------|
B:-----------------------|
G:-5-555555555--1095-6-|
D:-----------------------|
A:-3-333333333---893-4-|
E:-----------------------|
Guitar 1
E:----------------------------------------------
B:----------------------------------------------
G:--7-----10------------------------------------
D:--7--8--10--10--------------------------------
A:--5--8--8---10--------------------------------
E:------6------8--------------------------------
Guitar 2
E:----------------------------------------------
B:----------------------------------------------
G:--7-------------------------------------------
D:--7---8---3---10------------------------------
A:--5---8---3---10------------------------------
E:------6---1----8------------------------------
PM------------->
E:----------------
B:----------------
G:--2-------------
D:--2-------------
A:--0-------------
E:----------------
Then repeat the beginning stuff.
After the second chorus, do the following:
PM------------->
E:----------------
B:----------------
G:--7-7-7-7-------
D:--0-0-0-0-------
A:----------------
E:----------------
PM------------------------->
E:----------------------------------------------
B:----------------------------------------------
G:----------------------------------------------
D:--77777-----------555-------------------------
A:--55555-888-33333-333-------------------------
E:--------666-11111-----------------------------
E:----------------------------------------------
B:----------------------------------------------
G:--77777-----------555--------------2----------
D:--77777-888-33333-555--------------2----------
A:--55555-888-33333-333--------------0----------
E:--------666-11111-----------------------------
E:--------------------
B:--7--3-----5----5---
G:--7--3--2--5----5---
D:--7--3--3--5----5---
A:--5--1--3--3----3---
E:--------1-----------
Guitar 1
E:----------------------------------------------
B:----------------------------------------------
G:--7-----10-----------------------------------
D:--7--8--10--10--------------------------------
A:--5--8---8--10--------------------------------
E:-----6------8-------------------------------
Guitar 2
E:----------------------------------------------
B:----------------------------------------------
G:--7-------------------------------------------
D:--7---8---3---10------------------------------
A:--5---8---3---10------------------------------
E:------6---1----8------------------------------
After he stops singing, the Lead Guitar plays the chorus riff again, and it fades
out.
Once again, any questions, comments, or corrections email me at
[email protected]




Ваше мнение



Капча