---------------------------------------------------------------------------------
SHADES OF TRUTH - Bad Religion
---------------------------------------------------------------------------------

By: Terry ([email protected])

Intro
e|----------------------------------------------------------------|
B|----10-10--10-10------------------------------------------------|
G|--------------------10-10--10-10----12-12--12-12----9-9--9-9----|
D|-----7--7---7--7------------------------------------------------|
A|---------------------8--8---8--8----10-10--10-10----7-7--7-7----|
E|----------------------------------------------------------------|

e|----------------------------------------------------------------|
B|----10-10--10-10----12-12--12-12--------------------------------|
G|------------------------------------12-12--12-12----9-9--9-9----|
D|-----7--7---7--7----10-10--10-10--------------------------------|
A|------------------------------------10-10--10-10----7-7--7-7----|
E|----------------------------------------------------------------|

Pre-Chorus
e|------------------------------------------------------------|
B|------------------------------------------------------------|
G|------------------------------------------------------------|
D|------------------------------------------------------------|
A|--7-7-7--/--10----3-3-3--/--7----5-5-5--/--7----2-2-2-2--|
E|--5-5-5--/---8----1-1-1--/--5----3-3-3--/--5----0-0-0-0--|

Chorus
e|----------------------------------------------------------|
B|----------------------------------------------------------|
G|----------------------------------------------------------|
D|----------------------------------------------------------|
A|--7-7-7-7--3-3-3-3--5-5-5-5----7-7-7-7--3-3-3-3--5-5-5-5--|
E|--5-5-5-5--1-1-1-1--3-3-3-3----5-5-5-5--1-1-1-1--3-3-3-3--|

Solo1
e|----|
B|----|
G|----|
D|----|
A|----|
E|----|

Solo2
e|----|
B|----|
G|----|
D|----|
A|----|
E|----|

Damn!
Sorry about not gettin' those solos though, I'm just sayin that these tabs
better get posted. Last couple of times I've submitted, no post....so....
PLEASE POST THEM!!!

=================================================================================




Ваше мнение



Капча